  0
SECTION
  2
HEADER
  9
$ACADVER
  1
AC1027
  9
$ACADMAINTVER
 70
     8
  9
$DWGCODEPAGE
  3
ANSI_1252
  9
$REQUIREDVERSIONS
160
                 0
  9
$INSBASE
 10
0.0
 20
0.0
 30
0.0
  9
$EXTMIN
 10
1.000000000000000E+20
 20
1.000000000000000E+20
 30
1.000000000000000E+20
  9
$EXTMAX
 10
-1.000000000000000E+20
 20
-1.000000000000000E+20
 30
-1.000000000000000E+20
  9
$LIMMIN
 10
0.0
 20
0.0
  9
$LIMMAX
 10
12.0
 20
9.0
  9
$ORTHOMODE
 70
     0
  9
$REGENMODE
 70
     1
  9
$FILLMODE
 70
     1
  9
$QTEXTMODE
 70
     0
  9
$MIRRTEXT
 70
     1
  9
$LTSCALE
 40
1.0
  9
$ATTMODE
 70
     1
  9
$TEXTSIZE
 40
2.5
  9
$TRACEWID
 40
0.05
  9
$TEXTSTYLE
  7
Standard
  9
$CLAYER
  8
0
  9
$CELTYPE
  6
ByLayer
  9
$CECOLOR
 62
    18
  9
$CELTSCALE
 40
1.0
  9
$DISPSILH
 70
     0
  9
$DIMSCALE
 40
1.0
  9
$DIMASZ
 40
2.5
  9
$DIMEXO
 40
0.625
  9
$DIMDLI
 40
0.38
  9
$DIMRND
 40
0.0
  9
$DIMDLE
 40
0.0
  9
$DIMEXE
 40
1.25
  9
$DIMTP
 40
0.0
  9
$DIMTM
 40
0.0
  9
$DIMTXT
 40
2.5
  9
$DIMCEN
 40
0.09
  9
$DIMTSZ
 40
0.0
  9
$DIMTOL
 70
     0
  9
$DIMLIM
 70
     0
  9
$DIMTIH
 70
     1
  9
$DIMTOH
 70
     1
  9
$DIMSE1
 70
     0
  9
$DIMSE2
 70
     0
  9
$DIMTAD
 70
     0
  9
$DIMZIN
 70
     8
  9
$DIMBLK
  1

  9
$DIMASO
 70
     1
  9
$DIMSHO
 70
     1
  9
$DIMPOST
  1

  9
$DIMAPOST
  1

  9
$DIMALT
 70
     0
  9
$DIMALTD
 70
     2
  9
$DIMALTF
 40
25.4
  9
$DIMLFAC
 40
1.0
  9
$DIMTOFL
 70
     0
  9
$DIMTVP
 40
0.0
  9
$DIMTIX
 70
     0
  9
$DIMSOXD
 70
     0
  9
$DIMSAH
 70
     0
  9
$DIMBLK1
  1

  9
$DIMBLK2
  1

  9
$DIMSTYLE
  2
Standard
  9
$DIMCLRD
 70
    18
  9
$DIMCLRE
 70
    18
  9
$DIMCLRT
 70
    18
  9
$DIMTFAC
 40
1.0
  9
$DIMGAP
 40
0.625
  9
$DIMJUST
 70
     0
  9
$DIMSD1
 70
     0
  9
$DIMSD2
 70
     0
  9
$DIMTOLJ
 70
     1
  9
$DIMTZIN
 70
     0
  9
$DIMALTZ
 70
     0
  9
$DIMALTTZ
 70
     0
  9
$DIMUPT
 70
     0
  9
$DIMDEC
 70
     4
  9
$DIMTDEC
 70
     4
  9
$DIMALTU
 70
     2
  9
$DIMALTTD
 70
     2
  9
$DIMTXSTY
  7
Standard
  9
$DIMAUNIT
 70
     0
  9
$DIMADEC
 70
     0
  9
$DIMALTRND
 40
0.0
  9
$DIMAZIN
 70
     3
  9
$DIMDSEP
 70
    46
  9
$DIMATFIT
 70
     3
  9
$DIMFRAC
 70
     0
  9
$DIMLDRBLK
  1

  9
$DIMLUNIT
 70
     2
  9
$DIMLWD
 70
    -2
  9
$DIMLWE
 70
    -2
  9
$DIMTMOVE
 70
     0
  9
$DIMFXL
 40
1.0
  9
$DIMFXLON
 70
     0
  9
$DIMJOGANG
 40
0.7853981633974483
  9
$DIMTFILL
 70
     0
  9
$DIMTFILLCLR
 70
     0
  9
$DIMARCSYM
 70
     0
  9
$DIMLTYPE
  6

  9
$DIMLTEX1
  6

  9
$DIMLTEX2
  6

  9
$DIMTXTDIRECTION
 70
     0
  9
$LUNITS
 70
     2
  9
$LUPREC
 70
     4
  9
$SKETCHINC
 40
0.1
  9
$FILLETRAD
 40
0.5
  9
$AUNITS
 70
     0
  9
$AUPREC
 70
     0
  9
$MENU
  1
.
  9
$ELEVATION
 40
0.0
  9
$PELEVATION
 40
0.0
  9
$THICKNESS
 40
0.0
  9
$LIMCHECK
 70
     0
  9
$CHAMFERA
 40
0.0
  9
$CHAMFERB
 40
0.0
  9
$CHAMFERC
 40
0.0
  9
$CHAMFERD
 40
0.0
  9
$SKPOLY
 70
     0
  9
$TDCREATE
 40
2456546.49006757
  9
$TDUCREATE
 40
2456546.406734236
  9
$TDUPDATE
 40
2456546.490071898
  9
$TDUUPDATE
 40
2456546.406738565
  9
$TDINDWG
 40
0.0000000116
  9
$TDUSRTIMER
 40
0.0000000116
  9
$USRTIMER
 70
     1
  9
$ANGBASE
 50
0.0
  9
$ANGDIR
 70
     0
  9
$PDMODE
 70
     0
  9
$PDSIZE
 40
0.0
  9
$PLINEWID
 40
0.0
  9
$SPLFRAME
 70
     0
  9
$SPLINETYPE
 70
     6
  9
$SPLINESEGS
 70
     8
  9
$HANDSEED
  5
4D3
  9
$SURFTAB1
 70
     6
  9
$SURFTAB2
 70
     6
  9
$SURFTYPE
 70
     6
  9
$SURFU
 70
     6
  9
$SURFV
 70
     6
  9
$UCSBASE
  2

  9
$UCSNAME
  2

  9
$UCSORG
 10
0.0
 20
0.0
 30
0.0
  9
$UCSXDIR
 10
1.0
 20
0.0
 30
0.0
  9
$UCSYDIR
 10
0.0
 20
1.0
 30
0.0
  9
$UCSORTHOREF
  2

  9
$UCSORTHOVIEW
 70
     0
  9
$UCSORGTOP
 10
0.0
 20
0.0
 30
0.0
  9
$UCSORGBOTTOM
 10
0.0
 20
0.0
 30
0.0
  9
$UCSORGLEFT
 10
0.0
 20
0.0
 30
0.0
  9
$UCSORGRIGHT
 10
0.0
 20
0.0
 30
0.0
  9
$UCSORGFRONT
 10
0.0
 20
0.0
 30
0.0
  9
$UCSORGBACK
 10
0.0
 20
0.0
 30
0.0
  9
$PUCSBASE
  2

  9
$PUCSNAME
  2

  9
$PUCSORG
 10
0.0
 20
0.0
 30
0.0
  9
$PUCSXDIR
 10
1.0
 20
0.0
 30
0.0
  9
$PUCSYDIR
 10
0.0
 20
1.0
 30
0.0
  9
$PUCSORTHOREF
  2

  9
$PUCSORTHOVIEW
 70
     0
  9
$PUCSORGTOP
 10
0.0
 20
0.0
 30
0.0
  9
$PUCSORGBOTTOM
 10
0.0
 20
0.0
 30
0.0
  9
$PUCSORGLEFT
 10
0.0
 20
0.0
 30
0.0
  9
$PUCSORGRIGHT
 10
0.0
 20
0.0
 30
0.0
  9
$PUCSORGFRONT
 10
0.0
 20
0.0
 30
0.0
  9
$PUCSORGBACK
 10
0.0
 20
0.0
 30
0.0
  9
$USERI1
 70
     0
  9
$USERI2
 70
     0
  9
$USERI3
 70
     0
  9
$USERI4
 70
     0
  9
$USERI5
 70
     0
  9
$USERR1
 40
0.0
  9
$USERR2
 40
0.0
  9
$USERR3
 40
0.0
  9
$USERR4
 40
0.0
  9
$USERR5
 40
0.0
  9
$WORLDVIEW
 70
     1
  9
$SHADEDGE
 70
     3
  9
$SHADEDIF
 70
    70
  9
$TILEMODE
 70
     1
  9
$MAXACTVP
 70
    64
  9
$PINSBASE
 10
0.0
 20
0.0
 30
0.0
  9
$PLIMCHECK
 70
     0
  9
$PEXTMIN
 10
1.000000000000000E+20
 20
1.000000000000000E+20
 30
1.000000000000000E+20
  9
$PEXTMAX
 10
-1.000000000000000E+20
 20
-1.000000000000000E+20
 30
-1.000000000000000E+20
  9
$PLIMMIN
 10
0.0
 20
0.0
  9
$PLIMMAX
 10
210.0
 20
297.0
  9
$UNITMODE
 70
     0
  9
$VISRETAIN
 70
     1
  9
$PLINEGEN
 70
     0
  9
$PSLTSCALE
 70
     1
  9
$TREEDEPTH
 70
  3020
  9
$CMLSTYLE
  2
Standard
  9
$CMLJUST
 70
     0
  9
$CMLSCALE
 40
1.0
  9
$PROXYGRAPHICS
 70
     1
  9
$MEASUREMENT
 70
     1
  9
$CELWEIGHT
370
    -1
  9
$ENDCAPS
280
     0
  9
$JOINSTYLE
280
     0
  9
$LWDISPLAY
290
     0
  9
$INSUNITS
 70
     4
  9
$HYPERLINKBASE
  1

  9
$STYLESHEET
  1

  9
$XEDIT
290
     1
  9
$CEPSNTYPE
380
     0
  9
$PSTYLEMODE
290
     1
  9
$FINGERPRINTGUID
  2
{545F6464-1005-4189-A4CF-D0689B23EE8B}
  9
$VERSIONGUID
  2
{FAEB1C32-E019-11D5-929B-00C0DF256EC4}
  9
$EXTNAMES
290
     1
  9
$PSVPSCALE
 40
0.0
  9
$OLESTARTUP
290
     0
  9
$SORTENTS
280
   127
  9
$INDEXCTL
280
     0
  9
$HIDETEXT
280
     1
  9
$XCLIPFRAME
280
     2
  9
$HALOGAP
280
     0
  9
$OBSCOLOR
 70
   257
  9
$OBSLTYPE
280
     0
  9
$INTERSECTIONDISPLAY
280
     0
  9
$INTERSECTIONCOLOR
 70
   257
  9
$DIMASSOC
280
     2
  9
$PROJECTNAME
  1

  9
$CAMERADISPLAY
290
     0
  9
$LENSLENGTH
 40
50.0
  9
$CAMERAHEIGHT
 40
0.0
  9
$STEPSPERSEC
 40
2.0
  9
$STEPSIZE
 40
6.0
  9
$3DDWFPREC
 40
2.0
  9
$PSOLWIDTH
 40
0.25
  9
$PSOLHEIGHT
 40
4.0
  9
$LOFTANG1
 40
1.570796326794897
  9
$LOFTANG2
 40
1.570796326794897
  9
$LOFTMAG1
 40
0.0
  9
$LOFTMAG2
 40
0.0
  9
$LOFTPARAM
 70
     7
  9
$LOFTNORMALS
280
     1
  9
$LATITUDE
 40
37.795
  9
$LONGITUDE
 40
-122.394
  9
$NORTHDIRECTION
 40
0.0
  9
$TIMEZONE
 70
 -8000
  9
$LIGHTGLYPHDISPLAY
280
     1
  9
$TILEMODELIGHTSYNCH
280
     1
  9
$CMATERIAL
347
3ED
  9
$SOLIDHIST
280
     1
  9
$SHOWHIST
280
     1
  9
$DWFFRAME
280
     2
  9
$DGNFRAME
280
     2
  9
$REALWORLDSCALE
290
     1
  9
$INTERFERECOLOR
 62
   256
  9
$CSHADOW
280
     0
  9
$SHADOWPLANELOCATION
 40
0.0
  0
ENDSEC
  0
SECTION
  2
CLASSES
  0
CLASS
  1
ACDBDICTIONARYWDFLT
  2
AcDbDictionaryWithDefault
  3
ObjectDBX Classes
 90
        0
 91
        4
280
     0
281
     0
  0
CLASS
  1
VISUALSTYLE
  2
AcDbVisualStyle
  3
ObjectDBX Classes
 90
     4095
 91
        4
280
     0
281
     0
  0
CLASS
  1
MATERIAL
  2
AcDbMaterial
  3
ObjectDBX Classes
 90
     1153
 91
        4
280
     0
281
     0
  0
CLASS
  1
SCALE
  2
AcDbScale
  3
ObjectDBX Classes
 90
     1153
 91
        4
280
     0
281
     0
  0
CLASS
  1
SUN
  2
AcDbSun
  3
SCENEOE
 90
     1153
 91
        4
280
     0
281
     0
  0
CLASS
  1
DICTIONARYVAR
  2
AcDbDictionaryVar
  3
ObjectDBX Classes
 90
        0
 91
        4
280
     0
281
     0
  0
ENDSEC
  0
SECTION
  2
TABLES
  0
TABLE
  2
VPORT
  5
3B2
330
0
100
AcDbSymbolTable
 70
     1
  0
VPORT
  5
3D2
330
3B2
100
AcDbSymbolTableRecord
100
AcDbViewportTableRecord
  2
*Active
 70
     0
 10
0.0
 20
0.0
 11
1.0
 21
1.0
 12
10.42990654205607
 22
4.5
 13
0.0
 23
0.0
 14
0.5
 24
0.5
 15
0.5
 25
0.5
 16
0.0
 26
0.0
 36
1.0
 17
0.0
 27
0.0
 37
0.0
 40
9.0
 41
1.972972972850329
 42
50.0
 43
0.0
 44
0.0
 50
0.0
 51
0.0
 71
     0
 72
   100
 73
     1
 74
     3
 75
     0
 76
     0
 77
     0
 78
     0
281
     0
 65
     1
110
0.0
120
0.0
130
0.0
111
1.0
121
0.0
131
0.0
112
0.0
122
1.0
132
0.0
 79
     0
146
0.0
 60
     3
 61
     5
292
     1
282
     1
141
0.0
142
0.0
 63
   250
361
412
  0
ENDTAB
  0
TABLE
  2
LTYPE
  5
3AF
330
0
100
AcDbSymbolTable
 70
    19
  0
LTYPE
  5
3BD
330
3AF
100
AcDbSymbolTableRecord
100
AcDbLinetypeTableRecord
  2
ByBlock
 70
     0
  3

 72
    65
 73
     0
 40
0.0
  0
LTYPE
  5
3BE
330
3AF
100
AcDbSymbolTableRecord
100
AcDbLinetypeTableRecord
  2
ByLayer
 70
     0
  3

 72
    65
 73
     0
 40
0.0
  0
LTYPE
  5
3BF
330
3AF
100
AcDbSymbolTableRecord
100
AcDbLinetypeTableRecord
  2
Continuous
 70
     0
  3
Solid line
 72
    65
 73
     0
 40
0.0
  0
LTYPE
  5
441
330
3AF
100
AcDbSymbolTableRecord
100
AcDbLinetypeTableRecord
  2
BORDER
 70
     0
  3

 72
    65
 73
     6
 40
42.00000000000001
 49
12.0
 74
     0
 49
-6.0
 74
     0
 49
12.0
 74
     0
 49
-5.95
 74
     0
 49
0.1
 74
     0
 49
-5.95
 74
     0
  0
LTYPE
  5
442
330
3AF
100
AcDbSymbolTableRecord
100
AcDbLinetypeTableRecord
  2
BORDER2
 70
     0
  3

 72
    65
 73
     6
 40
21.0
 49
6.0
 74
     0
 49
-3.0
 74
     0
 49
6.0
 74
     0
 49
-2.95
 74
     0
 49
0.1
 74
     0
 49
-2.95
 74
     0
  0
LTYPE
  5
443
330
3AF
100
AcDbSymbolTableRecord
100
AcDbLinetypeTableRecord
  2
BORDERX2
 70
     0
  3

 72
    65
 73
     6
 40
84.0
 49
24.0
 74
     0
 49
-12.0
 74
     0
 49
24.0
 74
     0
 49
-11.95
 74
     0
 49
0.1
 74
     0
 49
-11.95
 74
     0
  0
LTYPE
  5
444
330
3AF
100
AcDbSymbolTableRecord
100
AcDbLinetypeTableRecord
  2
CENTER
 70
     0
  3

 72
    65
 73
     4
 40
50.0
 49
32.0
 74
     0
 49
-6.0
 74
     0
 49
6.0
 74
     0
 49
-6.0
 74
     0
  0
LTYPE
  5
445
330
3AF
100
AcDbSymbolTableRecord
100
AcDbLinetypeTableRecord
  2
CENTER2
 70
     0
  3

 72
    65
 73
     4
 40
25.0
 49
16.0
 74
     0
 49
-3.0
 74
     0
 49
3.0
 74
     0
 49
-3.0
 74
     0
  0
LTYPE
  5
446
330
3AF
100
AcDbSymbolTableRecord
100
AcDbLinetypeTableRecord
  2
CENTERX2
 70
     0
  3

 72
    65
 73
     4
 40
100.0
 49
64.0
 74
     0
 49
-12.0
 74
     0
 49
12.0
 74
     0
 49
-12.0
 74
     0
  0
LTYPE
  5
447
330
3AF
100
AcDbSymbolTableRecord
100
AcDbLinetypeTableRecord
  2
DASHDOT
 70
     0
  3

 72
    65
 73
     4
 40
24.0
 49
12.0
 74
     0
 49
-5.95
 74
     0
 49
0.1
 74
     0
 49
-5.95
 74
     0
  0
LTYPE
  5
448
330
3AF
100
AcDbSymbolTableRecord
100
AcDbLinetypeTableRecord
  2
DASHDOT2
 70
     0
  3

 72
    65
 73
     4
 40
12.0
 49
6.0
 74
     0
 49
-2.95
 74
     0
 49
0.1
 74
     0
 49
-2.95
 74
     0
  0
LTYPE
  5
449
330
3AF
100
AcDbSymbolTableRecord
100
AcDbLinetypeTableRecord
  2
DASHDOTX2
 70
     0
  3

 72
    65
 73
     4
 40
48.0
 49
24.0
 74
     0
 49
-11.95
 74
     0
 49
0.1
 74
     0
 49
-11.95
 74
     0
  0
LTYPE
  5
44A
330
3AF
100
AcDbSymbolTableRecord
100
AcDbLinetypeTableRecord
  2
DASHED
 70
     0
  3

 72
    65
 73
     2
 40
18.0
 49
12.0
 74
     0
 49
-6.0
 74
     0
  0
LTYPE
  5
44B
330
3AF
100
AcDbSymbolTableRecord
100
AcDbLinetypeTableRecord
  2
DASHED2
 70
     0
  3

 72
    65
 73
     2
 40
9.0
 49
6.0
 74
     0
 49
-3.0
 74
     0
  0
LTYPE
  5
44C
330
3AF
100
AcDbSymbolTableRecord
100
AcDbLinetypeTableRecord
  2
DASHEDX2
 70
     0
  3

 72
    65
 73
     2
 40
36.0
 49
24.0
 74
     0
 49
-12.0
 74
     0
  0
LTYPE
  5
44D
330
3AF
100
AcDbSymbolTableRecord
100
AcDbLinetypeTableRecord
  2
DIVIDE
 70
     0
  3

 72
    65
 73
     6
 40
29.99999999999999
 49
12.0
 74
     0
 49
-5.9
 74
     0
 49
0.15
 74
     0
 49
-5.9
 74
     0
 49
0.15
 74
     0
 49
-5.9
 74
     0
  0
LTYPE
  5
44E
330
3AF
100
AcDbSymbolTableRecord
100
AcDbLinetypeTableRecord
  2
DIVIDE2
 70
     0
  3

 72
    65
 73
     6
 40
15.0
 49
6.0
 74
     0
 49
-2.9
 74
     0
 49
0.15
 74
     0
 49
-2.9
 74
     0
 49
0.15
 74
     0
 49
-2.9
 74
     0
  0
LTYPE
  5
44F
330
3AF
100
AcDbSymbolTableRecord
100
AcDbLinetypeTableRecord
  2
DIVIDEX2
 70
     0
  3

 72
    65
 73
     6
 40
59.99999999999999
 49
24.0
 74
     0
 49
-11.9
 74
     0
 49
0.15
 74
     0
 49
-11.9
 74
     0
 49
0.15
 74
     0
 49
-11.9
 74
     0
  0
LTYPE
  5
450
330
3AF
100
AcDbSymbolTableRecord
100
AcDbLinetypeTableRecord
  2
DOT
 70
     0
  3

 72
    65
 73
     2
 40
6.3
 49
0.1
 74
     0
 49
-6.2
 74
     0
  0
LTYPE
  5
451
330
3AF
100
AcDbSymbolTableRecord
100
AcDbLinetypeTableRecord
  2
DOT2
 70
     0
  3

 72
    65
 73
     2
 40
3.2
 49
0.1
 74
     0
 49
-3.1
 74
     0
  0
LTYPE
  5
452
330
3AF
100
AcDbSymbolTableRecord
100
AcDbLinetypeTableRecord
  2
DOTX2
 70
     0
  3

 72
    65
 73
     2
 40
12.5
 49
0.1
 74
     0
 49
-12.4
 74
     0
  0
ENDTAB
  0
TABLE
  2
LAYER
  5
3AC
330
0
100
AcDbSymbolTable
 70
     5
  0
LAYER
  5
3BA
330
3AC
100
AcDbSymbolTableRecord
100
AcDbLayerTableRecord
  2
0
 70
     0
 62
     7
420
 16777215
  6
Continuous
370
     0
390
3B9
347
3EF
348
0
  0
LAYER
  5
453
330
3AC
100
AcDbSymbolTableRecord
100
AcDbLayerTableRecord
  2
Contours
 70
     0
 62
     7
420
 16777215
  6
Continuous
370
     0
390
3B9
347
3EF
348
0
  0
LAYER
  5
454
330
3AC
100
AcDbSymbolTableRecord
100
AcDbLayerTableRecord
  2
graduations
 70
     0
 62
     7
420
 16777215
  6
Continuous
370
     0
390
3B9
347
3EF
348
0
  0
LAYER
  5
455
330
3AC
100
AcDbSymbolTableRecord
100
AcDbLayerTableRecord
  2
textes
 70
     0
 62
     7
420
 16777215
  6
Continuous
370
     0
390
3B9
347
3EF
348
0
  0
LAYER
  5
456
330
3AC
100
AcDbSymbolTableRecord
100
AcDbLayerTableRecord
  2
Epures
 70
     0
 62
     7
420
 16777215
  6
Continuous
370
     0
390
3B9
347
3EF
348
0
  0
ENDTAB
  0
TABLE
  2
STYLE
  5
3AD
330
0
100
AcDbSymbolTable
 70
   119
  0
STYLE
  5
3BB
330
3AD
100
AcDbSymbolTableRecord
100
AcDbTextStyleTableRecord
  2
Standard
 70
     0
 40
0.0
 41
1.0
 50
0.0
 71
     0
 42
2.5
  3
txt
  4

  0
STYLE
  5
457
330
3AD
100
AcDbSymbolTableRecord
100
AcDbTextStyleTableRecord
  2
textstyle0
 70
     0
 40
0.0
 41
1.0
 50
0.0
 71
     0
 42
2.5
  3
standard
  4

1001
ACAD
1000
standard
1071
        0
  0
STYLE
  5
458
330
3AD
100
AcDbSymbolTableRecord
100
AcDbTextStyleTableRecord
  2
textstyle1
 70
     0
 40
0.0
 41
1.0
 50
0.0
 71
     0
 42
2.5
  3
standard
  4

1001
ACAD
1000
standard
1071
        0
  0
STYLE
  5
459
330
3AD
100
AcDbSymbolTableRecord
100
AcDbTextStyleTableRecord
  2
textstyle2
 70
     0
 40
0.0
 41
1.0
 50
0.0
 71
     0
 42
2.5
  3
standard
  4

1001
ACAD
1000
standard
1071
        0
  0
STYLE
  5
45A
330
3AD
100
AcDbSymbolTableRecord
100
AcDbTextStyleTableRecord
  2
textstyle3
 70
     0
 40
0.0
 41
1.0
 50
0.0
 71
     0
 42
2.5
  3
standard
  4

1001
ACAD
1000
standard
1071
        0
  0
STYLE
  5
45B
330
3AD
100
AcDbSymbolTableRecord
100
AcDbTextStyleTableRecord
  2
textstyle4
 70
     0
 40
0.0
 41
1.0
 50
0.0
 71
     0
 42
2.5
  3
standard
  4

1001
ACAD
1000
standard
1071
        0
  0
STYLE
  5
45C
330
3AD
100
AcDbSymbolTableRecord
100
AcDbTextStyleTableRecord
  2
textstyle5
 70
     0
 40
0.0
 41
1.0
 50
0.0
 71
     0
 42
2.5
  3
standard
  4

1001
ACAD
1000
standard
1071
        0
  0
STYLE
  5
45D
330
3AD
100
AcDbSymbolTableRecord
100
AcDbTextStyleTableRecord
  2
textstyle6
 70
     0
 40
0.0
 41
1.0
 50
0.0
 71
     0
 42
2.5
  3
standard
  4

1001
ACAD
1000
standard
1071
        0
  0
STYLE
  5
45E
330
3AD
100
AcDbSymbolTableRecord
100
AcDbTextStyleTableRecord
  2
textstyle7
 70
     0
 40
0.0
 41
1.0
 50
0.0
 71
     0
 42
2.5
  3
standard
  4

1001
ACAD
1000
standard
1071
        0
  0
STYLE
  5
45F
330
3AD
100
AcDbSymbolTableRecord
100
AcDbTextStyleTableRecord
  2
textstyle8
 70
     0
 40
0.0
 41
1.0
 50
0.0
 71
     0
 42
2.5
  3
standard
  4

1001
ACAD
1000
standard
1071
        0
  0
STYLE
  5
460
330
3AD
100
AcDbSymbolTableRecord
100
AcDbTextStyleTableRecord
  2
textstyle9
 70
     0
 40
0.0
 41
1.0
 50
0.0
 71
     0
 42
2.5
  3
standard
  4

1001
ACAD
1000
standard
1071
        0
  0
STYLE
  5
461
330
3AD
100
AcDbSymbolTableRecord
100
AcDbTextStyleTableRecord
  2
textstyle10
 70
     0
 40
0.0
 41
1.0
 50
0.0
 71
     0
 42
2.5
  3
standard
  4

1001
ACAD
1000
standard
1071
        0
  0
STYLE
  5
462
330
3AD
100
AcDbSymbolTableRecord
100
AcDbTextStyleTableRecord
  2
textstyle11
 70
     0
 40
0.0
 41
1.0
 50
0.0
 71
     0
 42
2.5
  3
standard
  4

1001
ACAD
1000
standard
1071
        0
  0
STYLE
  5
463
330
3AD
100
AcDbSymbolTableRecord
100
AcDbTextStyleTableRecord
  2
textstyle12
 70
     0
 40
0.0
 41
1.0
 50
0.0
 71
     0
 42
2.5
  3
standard
  4

1001
ACAD
1000
standard
1071
        0
  0
STYLE
  5
464
330
3AD
100
AcDbSymbolTableRecord
100
AcDbTextStyleTableRecord
  2
textstyle13
 70
     0
 40
0.0
 41
1.0
 50
0.0
 71
     0
 42
2.5
  3
standard
  4

1001
ACAD
1000
standard
1071
        0
  0
STYLE
  5
465
330
3AD
100
AcDbSymbolTableRecord
100
AcDbTextStyleTableRecord
  2
textstyle14
 70
     0
 40
0.0
 41
1.0
 50
0.0
 71
     0
 42
2.5
  3
standard
  4

1001
ACAD
1000
standard
1071
        0
  0
STYLE
  5
466
330
3AD
100
AcDbSymbolTableRecord
100
AcDbTextStyleTableRecord
  2
textstyle15
 70
     0
 40
0.0
 41
1.0
 50
0.0
 71
     0
 42
2.5
  3
standard
  4

1001
ACAD
1000
standard
1071
        0
  0
STYLE
  5
467
330
3AD
100
AcDbSymbolTableRecord
100
AcDbTextStyleTableRecord
  2
textstyle16
 70
     0
 40
0.0
 41
1.0
 50
0.0
 71
     0
 42
2.5
  3
standard
  4

1001
ACAD
1000
standard
1071
        0
  0
STYLE
  5
468
330
3AD
100
AcDbSymbolTableRecord
100
AcDbTextStyleTableRecord
  2
textstyle17
 70
     0
 40
0.0
 41
1.0
 50
0.0
 71
     0
 42
2.5
  3
standard
  4

1001
ACAD
1000
standard
1071
        0
  0
STYLE
  5
469
330
3AD
100
AcDbSymbolTableRecord
100
AcDbTextStyleTableRecord
  2
textstyle18
 70
     0
 40
0.0
 41
1.0
 50
0.0
 71
     0
 42
2.5
  3
standard
  4

1001
ACAD
1000
standard
1071
        0
  0
STYLE
  5
46A
330
3AD
100
AcDbSymbolTableRecord
100
AcDbTextStyleTableRecord
  2
textstyle19
 70
     0
 40
0.0
 41
1.0
 50
0.0
 71
     0
 42
2.5
  3
standard
  4

1001
ACAD
1000
standard
1071
        0
  0
STYLE
  5
46B
330
3AD
100
AcDbSymbolTableRecord
100
AcDbTextStyleTableRecord
  2
textstyle20
 70
     0
 40
0.0
 41
1.0
 50
0.0
 71
     0
 42
2.5
  3
standard
  4

1001
ACAD
1000
standard
1071
        0
  0
STYLE
  5
46C
330
3AD
100
AcDbSymbolTableRecord
100
AcDbTextStyleTableRecord
  2
textstyle21
 70
     0
 40
0.0
 41
1.0
 50
0.0
 71
     0
 42
2.5
  3
standard
  4

1001
ACAD
1000
standard
1071
        0
  0
STYLE
  5
46D
330
3AD
100
AcDbSymbolTableRecord
100
AcDbTextStyleTableRecord
  2
textstyle22
 70
     0
 40
0.0
 41
1.0
 50
0.0
 71
     0
 42
2.5
  3
standard
  4

1001
ACAD
1000
standard
1071
        0
  0
STYLE
  5
46E
330
3AD
100
AcDbSymbolTableRecord
100
AcDbTextStyleTableRecord
  2
textstyle23
 70
     0
 40
0.0
 41
1.0
 50
0.0
 71
     0
 42
2.5
  3
standard
  4

1001
ACAD
1000
standard
1071
        0
  0
STYLE
  5
46F
330
3AD
100
AcDbSymbolTableRecord
100
AcDbTextStyleTableRecord
  2
textstyle24
 70
     0
 40
0.0
 41
1.0
 50
0.0
 71
     0
 42
2.5
  3
standard
  4

1001
ACAD
1000
standard
1071
        0
  0
STYLE
  5
470
330
3AD
100
AcDbSymbolTableRecord
100
AcDbTextStyleTableRecord
  2
textstyle25
 70
     0
 40
0.0
 41
1.0
 50
0.0
 71
     0
 42
2.5
  3
standard
  4

1001
ACAD
1000
standard
1071
        0
  0
STYLE
  5
471
330
3AD
100
AcDbSymbolTableRecord
100
AcDbTextStyleTableRecord
  2
textstyle26
 70
     0
 40
0.0
 41
1.0
 50
0.0
 71
     0
 42
2.5
  3
standard
  4

1001
ACAD
1000
standard
1071
        0
  0
STYLE
  5
472
330
3AD
100
AcDbSymbolTableRecord
100
AcDbTextStyleTableRecord
  2
textstyle27
 70
     0
 40
0.0
 41
1.0
 50
0.0
 71
     0
 42
2.5
  3
standard
  4

1001
ACAD
1000
standard
1071
        0
  0
STYLE
  5
473
330
3AD
100
AcDbSymbolTableRecord
100
AcDbTextStyleTableRecord
  2
textstyle28
 70
     0
 40
0.0
 41
1.0
 50
0.0
 71
     0
 42
2.5
  3
standard
  4

1001
ACAD
1000
standard
1071
        0
  0
STYLE
  5
474
330
3AD
100
AcDbSymbolTableRecord
100
AcDbTextStyleTableRecord
  2
textstyle29
 70
     0
 40
0.0
 41
1.0
 50
0.0
 71
     0
 42
2.5
  3
standard
  4

1001
ACAD
1000
standard
1071
        0
  0
STYLE
  5
475
330
3AD
100
AcDbSymbolTableRecord
100
AcDbTextStyleTableRecord
  2
textstyle30
 70
     0
 40
0.0
 41
1.0
 50
0.0
 71
     0
 42
2.5
  3
standard
  4

1001
ACAD
1000
standard
1071
        0
  0
STYLE
  5
476
330
3AD
100
AcDbSymbolTableRecord
100
AcDbTextStyleTableRecord
  2
textstyle31
 70
     0
 40
0.0
 41
1.0
 50
0.0
 71
     0
 42
2.5
  3
standard
  4

1001
ACAD
1000
standard
1071
        0
  0
STYLE
  5
477
330
3AD
100
AcDbSymbolTableRecord
100
AcDbTextStyleTableRecord
  2
textstyle32
 70
     0
 40
0.0
 41
1.0
 50
0.0
 71
     0
 42
2.5
  3
standard
  4

1001
ACAD
1000
standard
1071
        0
  0
STYLE
  5
478
330
3AD
100
AcDbSymbolTableRecord
100
AcDbTextStyleTableRecord
  2
textstyle33
 70
     0
 40
0.0
 41
1.0
 50
0.0
 71
     0
 42
2.5
  3
standard
  4

1001
ACAD
1000
standard
1071
        0
  0
STYLE
  5
479
330
3AD
100
AcDbSymbolTableRecord
100
AcDbTextStyleTableRecord
  2
textstyle34
 70
     0
 40
0.0
 41
1.0
 50
0.0
 71
     0
 42
2.5
  3
standard
  4

1001
ACAD
1000
standard
1071
        0
  0
STYLE
  5
47A
330
3AD
100
AcDbSymbolTableRecord
100
AcDbTextStyleTableRecord
  2
textstyle35
 70
     0
 40
0.0
 41
1.0
 50
0.0
 71
     0
 42
2.5
  3
standard
  4

1001
ACAD
1000
standard
1071
        0
  0
STYLE
  5
47B
330
3AD
100
AcDbSymbolTableRecord
100
AcDbTextStyleTableRecord
  2
textstyle36
 70
     0
 40
0.0
 41
1.0
 50
0.0
 71
     0
 42
2.5
  3
standard
  4

1001
ACAD
1000
standard
1071
        0
  0
STYLE
  5
47C
330
3AD
100
AcDbSymbolTableRecord
100
AcDbTextStyleTableRecord
  2
textstyle37
 70
     0
 40
0.0
 41
1.0
 50
0.0
 71
     0
 42
2.5
  3
standard
  4

1001
ACAD
1000
standard
1071
        0
  0
STYLE
  5
47D
330
3AD
100
AcDbSymbolTableRecord
100
AcDbTextStyleTableRecord
  2
textstyle38
 70
     0
 40
0.0
 41
1.0
 50
0.0
 71
     0
 42
2.5
  3
standard
  4

1001
ACAD
1000
standard
1071
        0
  0
STYLE
  5
47E
330
3AD
100
AcDbSymbolTableRecord
100
AcDbTextStyleTableRecord
  2
textstyle39
 70
     0
 40
0.0
 41
1.0
 50
0.0
 71
     0
 42
2.5
  3
standard
  4

1001
ACAD
1000
standard
1071
        0
  0
STYLE
  5
47F
330
3AD
100
AcDbSymbolTableRecord
100
AcDbTextStyleTableRecord
  2
textstyle40
 70
     0
 40
0.0
 41
1.0
 50
0.0
 71
     0
 42
2.5
  3
standard
  4

1001
ACAD
1000
standard
1071
        0
  0
STYLE
  5
480
330
3AD
100
AcDbSymbolTableRecord
100
AcDbTextStyleTableRecord
  2
textstyle41
 70
     0
 40
0.0
 41
1.0
 50
0.0
 71
     0
 42
2.5
  3
standard
  4

1001
ACAD
1000
standard
1071
        0
  0
STYLE
  5
481
330
3AD
100
AcDbSymbolTableRecord
100
AcDbTextStyleTableRecord
  2
textstyle42
 70
     0
 40
0.0
 41
1.0
 50
0.0
 71
     0
 42
2.5
  3
standard
  4

1001
ACAD
1000
standard
1071
        0
  0
STYLE
  5
482
330
3AD
100
AcDbSymbolTableRecord
100
AcDbTextStyleTableRecord
  2
textstyle43
 70
     0
 40
0.0
 41
1.0
 50
0.0
 71
     0
 42
2.5
  3
standard
  4

1001
ACAD
1000
standard
1071
        0
  0
STYLE
  5
483
330
3AD
100
AcDbSymbolTableRecord
100
AcDbTextStyleTableRecord
  2
textstyle44
 70
     0
 40
0.0
 41
1.0
 50
0.0
 71
     0
 42
2.5
  3
standard
  4

1001
ACAD
1000
standard
1071
        0
  0
STYLE
  5
484
330
3AD
100
AcDbSymbolTableRecord
100
AcDbTextStyleTableRecord
  2
textstyle45
 70
     0
 40
0.0
 41
1.0
 50
0.0
 71
     0
 42
2.5
  3
standard
  4

1001
ACAD
1000
standard
1071
        0
  0
STYLE
  5
485
330
3AD
100
AcDbSymbolTableRecord
100
AcDbTextStyleTableRecord
  2
textstyle46
 70
     0
 40
0.0
 41
1.0
 50
0.0
 71
     0
 42
2.5
  3
standard
  4

1001
ACAD
1000
standard
1071
        0
  0
STYLE
  5
486
330
3AD
100
AcDbSymbolTableRecord
100
AcDbTextStyleTableRecord
  2
textstyle47
 70
     0
 40
0.0
 41
1.0
 50
0.0
 71
     0
 42
2.5
  3
standard
  4

1001
ACAD
1000
standard
1071
        0
  0
STYLE
  5
487
330
3AD
100
AcDbSymbolTableRecord
100
AcDbTextStyleTableRecord
  2
textstyle48
 70
     0
 40
0.0
 41
1.0
 50
0.0
 71
     0
 42
2.5
  3
standard
  4

1001
ACAD
1000
standard
1071
        0
  0
STYLE
  5
488
330
3AD
100
AcDbSymbolTableRecord
100
AcDbTextStyleTableRecord
  2
textstyle49
 70
     0
 40
0.0
 41
1.0
 50
0.0
 71
     0
 42
2.5
  3
standard
  4

1001
ACAD
1000
standard
1071
        0
  0
STYLE
  5
489
330
3AD
100
AcDbSymbolTableRecord
100
AcDbTextStyleTableRecord
  2
textstyle50
 70
     0
 40
0.0
 41
1.0
 50
0.0
 71
     0
 42
2.5
  3
standard
  4

1001
ACAD
1000
standard
1071
        0
  0
STYLE
  5
48A
330
3AD
100
AcDbSymbolTableRecord
100
AcDbTextStyleTableRecord
  2
textstyle51
 70
     0
 40
0.0
 41
1.0
 50
0.0
 71
     0
 42
2.5
  3
standard
  4

1001
ACAD
1000
standard
1071
        0
  0
STYLE
  5
48B
330
3AD
100
AcDbSymbolTableRecord
100
AcDbTextStyleTableRecord
  2
textstyle52
 70
     0
 40
0.0
 41
1.0
 50
0.0
 71
     0
 42
2.5
  3
standard
  4

1001
ACAD
1000
standard
1071
        0
  0
STYLE
  5
48C
330
3AD
100
AcDbSymbolTableRecord
100
AcDbTextStyleTableRecord
  2
textstyle53
 70
     0
 40
0.0
 41
1.0
 50
0.0
 71
     0
 42
2.5
  3
standard
  4

1001
ACAD
1000
standard
1071
        0
  0
STYLE
  5
48D
330
3AD
100
AcDbSymbolTableRecord
100
AcDbTextStyleTableRecord
  2
textstyle54
 70
     0
 40
0.0
 41
1.0
 50
0.0
 71
     0
 42
2.5
  3
standard
  4

1001
ACAD
1000
standard
1071
        0
  0
STYLE
  5
48E
330
3AD
100
AcDbSymbolTableRecord
100
AcDbTextStyleTableRecord
  2
textstyle55
 70
     0
 40
0.0
 41
1.0
 50
0.0
 71
     0
 42
2.5
  3
standard
  4

1001
ACAD
1000
standard
1071
        0
  0
STYLE
  5
48F
330
3AD
100
AcDbSymbolTableRecord
100
AcDbTextStyleTableRecord
  2
textstyle56
 70
     0
 40
0.0
 41
1.0
 50
0.0
 71
     0
 42
2.5
  3
standard
  4

1001
ACAD
1000
standard
1071
        0
  0
STYLE
  5
490
330
3AD
100
AcDbSymbolTableRecord
100
AcDbTextStyleTableRecord
  2
textstyle57
 70
     0
 40
0.0
 41
1.0
 50
0.0
 71
     0
 42
2.5
  3
standard
  4

1001
ACAD
1000
standard
1071
        0
  0
STYLE
  5
491
330
3AD
100
AcDbSymbolTableRecord
100
AcDbTextStyleTableRecord
  2
textstyle58
 70
     0
 40
0.0
 41
1.0
 50
0.0
 71
     0
 42
2.5
  3
Standard
  4

1001
ACAD
1000
Standard
1071
        0
  0
STYLE
  5
492
330
3AD
100
AcDbSymbolTableRecord
100
AcDbTextStyleTableRecord
  2
textstyle59
 70
     0
 40
0.0
 41
1.0
 50
0.0
 71
     0
 42
2.5
  3
standard
  4

1001
ACAD
1000
standard
1071
        0
  0
STYLE
  5
493
330
3AD
100
AcDbSymbolTableRecord
100
AcDbTextStyleTableRecord
  2
textstyle60
 70
     0
 40
0.0
 41
1.0
 50
0.0
 71
     0
 42
2.5
  3
standard
  4

1001
ACAD
1000
standard
1071
        0
  0
STYLE
  5
494
330
3AD
100
AcDbSymbolTableRecord
100
AcDbTextStyleTableRecord
  2
textstyle61
 70
     0
 40
0.0
 41
1.0
 50
0.0
 71
     0
 42
2.5
  3
standard
  4

1001
ACAD
1000
standard
1071
        0
  0
STYLE
  5
495
330
3AD
100
AcDbSymbolTableRecord
100
AcDbTextStyleTableRecord
  2
textstyle62
 70
     0
 40
0.0
 41
1.0
 50
0.0
 71
     0
 42
2.5
  3
standard
  4

1001
ACAD
1000
standard
1071
        0
  0
STYLE
  5
496
330
3AD
100
AcDbSymbolTableRecord
100
AcDbTextStyleTableRecord
  2
textstyle63
 70
     0
 40
0.0
 41
1.0
 50
0.0
 71
     0
 42
2.5
  3
standard
  4

1001
ACAD
1000
standard
1071
        0
  0
STYLE
  5
497
330
3AD
100
AcDbSymbolTableRecord
100
AcDbTextStyleTableRecord
  2
textstyle64
 70
     0
 40
0.0
 41
1.0
 50
0.0
 71
     0
 42
2.5
  3
standard
  4

1001
ACAD
1000
standard
1071
        0
  0
STYLE
  5
498
330
3AD
100
AcDbSymbolTableRecord
100
AcDbTextStyleTableRecord
  2
textstyle65
 70
     0
 40
0.0
 41
1.0
 50
0.0
 71
     0
 42
2.5
  3
standard
  4

1001
ACAD
1000
standard
1071
        0
  0
STYLE
  5
499
330
3AD
100
AcDbSymbolTableRecord
100
AcDbTextStyleTableRecord
  2
textstyle66
 70
     0
 40
0.0
 41
1.0
 50
0.0
 71
     0
 42
2.5
  3
standard
  4

1001
ACAD
1000
standard
1071
        0
  0
STYLE
  5
49A
330
3AD
100
AcDbSymbolTableRecord
100
AcDbTextStyleTableRecord
  2
textstyle67
 70
     0
 40
0.0
 41
1.0
 50
0.0
 71
     0
 42
2.5
  3
standard
  4

1001
ACAD
1000
standard
1071
        0
  0
STYLE
  5
49B
330
3AD
100
AcDbSymbolTableRecord
100
AcDbTextStyleTableRecord
  2
textstyle68
 70
     0
 40
0.0
 41
1.0
 50
0.0
 71
     0
 42
2.5
  3
standard
  4

1001
ACAD
1000
standard
1071
        0
  0
STYLE
  5
49C
330
3AD
100
AcDbSymbolTableRecord
100
AcDbTextStyleTableRecord
  2
textstyle69
 70
     0
 40
0.0
 41
1.0
 50
0.0
 71
     0
 42
2.5
  3
standard
  4

1001
ACAD
1000
standard
1071
        0
  0
STYLE
  5
49D
330
3AD
100
AcDbSymbolTableRecord
100
AcDbTextStyleTableRecord
  2
textstyle70
 70
     0
 40
0.0
 41
1.0
 50
0.0
 71
     0
 42
2.5
  3
standard
  4

1001
ACAD
1000
standard
1071
        0
  0
STYLE
  5
49E
330
3AD
100
AcDbSymbolTableRecord
100
AcDbTextStyleTableRecord
  2
textstyle71
 70
     0
 40
0.0
 41
1.0
 50
0.0
 71
     0
 42
2.5
  3
standard
  4

1001
ACAD
1000
standard
1071
        0
  0
STYLE
  5
49F
330
3AD
100
AcDbSymbolTableRecord
100
AcDbTextStyleTableRecord
  2
textstyle72
 70
     0
 40
0.0
 41
1.0
 50
0.0
 71
     0
 42
2.5
  3
standard
  4

1001
ACAD
1000
standard
1071
        0
  0
STYLE
  5
4A0
330
3AD
100
AcDbSymbolTableRecord
100
AcDbTextStyleTableRecord
  2
textstyle73
 70
     0
 40
0.0
 41
1.0
 50
0.0
 71
     0
 42
2.5
  3
standard
  4

1001
ACAD
1000
standard
1071
        0
  0
STYLE
  5
4A1
330
3AD
100
AcDbSymbolTableRecord
100
AcDbTextStyleTableRecord
  2
textstyle74
 70
     0
 40
0.0
 41
1.0
 50
0.0
 71
     0
 42
2.5
  3
standard
  4

1001
ACAD
1000
standard
1071
        0
  0
STYLE
  5
4A2
330
3AD
100
AcDbSymbolTableRecord
100
AcDbTextStyleTableRecord
  2
textstyle75
 70
     0
 40
0.0
 41
1.0
 50
0.0
 71
     0
 42
2.5
  3
standard
  4

1001
ACAD
1000
standard
1071
        0
  0
STYLE
  5
4A3
330
3AD
100
AcDbSymbolTableRecord
100
AcDbTextStyleTableRecord
  2
textstyle76
 70
     0
 40
0.0
 41
1.0
 50
0.0
 71
     0
 42
2.5
  3
standard
  4

1001
ACAD
1000
standard
1071
        0
  0
STYLE
  5
4A4
330
3AD
100
AcDbSymbolTableRecord
100
AcDbTextStyleTableRecord
  2
textstyle77
 70
     0
 40
0.0
 41
1.0
 50
0.0
 71
     0
 42
2.5
  3
standard
  4

1001
ACAD
1000
standard
1071
        0
  0
STYLE
  5
4A5
330
3AD
100
AcDbSymbolTableRecord
100
AcDbTextStyleTableRecord
  2
textstyle78
 70
     0
 40
0.0
 41
1.0
 50
0.0
 71
     0
 42
2.5
  3
standard
  4

1001
ACAD
1000
standard
1071
        0
  0
STYLE
  5
4A6
330
3AD
100
AcDbSymbolTableRecord
100
AcDbTextStyleTableRecord
  2
textstyle79
 70
     0
 40
0.0
 41
1.0
 50
0.0
 71
     0
 42
2.5
  3
standard
  4

1001
ACAD
1000
standard
1071
        0
  0
STYLE
  5
4A7
330
3AD
100
AcDbSymbolTableRecord
100
AcDbTextStyleTableRecord
  2
textstyle80
 70
     0
 40
0.0
 41
1.0
 50
0.0
 71
     0
 42
2.5
  3
standard
  4

1001
ACAD
1000
standard
1071
        0
  0
STYLE
  5
4A8
330
3AD
100
AcDbSymbolTableRecord
100
AcDbTextStyleTableRecord
  2
textstyle81
 70
     0
 40
0.0
 41
1.0
 50
0.0
 71
     0
 42
2.5
  3
standard
  4

1001
ACAD
1000
standard
1071
        0
  0
STYLE
  5
4A9
330
3AD
100
AcDbSymbolTableRecord
100
AcDbTextStyleTableRecord
  2
textstyle82
 70
     0
 40
0.0
 41
1.0
 50
0.0
 71
     0
 42
2.5
  3
standard
  4

1001
ACAD
1000
standard
1071
        0
  0
STYLE
  5
4AA
330
3AD
100
AcDbSymbolTableRecord
100
AcDbTextStyleTableRecord
  2
textstyle83
 70
     0
 40
0.0
 41
1.0
 50
0.0
 71
     0
 42
2.5
  3
standard
  4

1001
ACAD
1000
standard
1071
        0
  0
STYLE
  5
4AB
330
3AD
100
AcDbSymbolTableRecord
100
AcDbTextStyleTableRecord
  2
textstyle84
 70
     0
 40
0.0
 41
1.0
 50
0.0
 71
     0
 42
2.5
  3
standard
  4

1001
ACAD
1000
standard
1071
        0
  0
STYLE
  5
4AC
330
3AD
100
AcDbSymbolTableRecord
100
AcDbTextStyleTableRecord
  2
textstyle85
 70
     0
 40
0.0
 41
1.0
 50
0.0
 71
     0
 42
2.5
  3
standard
  4

1001
ACAD
1000
standard
1071
        0
  0
STYLE
  5
4AD
330
3AD
100
AcDbSymbolTableRecord
100
AcDbTextStyleTableRecord
  2
textstyle86
 70
     0
 40
0.0
 41
1.0
 50
0.0
 71
     0
 42
2.5
  3
standard
  4

1001
ACAD
1000
standard
1071
        0
  0
STYLE
  5
4AE
330
3AD
100
AcDbSymbolTableRecord
100
AcDbTextStyleTableRecord
  2
textstyle87
 70
     0
 40
0.0
 41
1.0
 50
0.0
 71
     0
 42
2.5
  3
standard
  4

1001
ACAD
1000
standard
1071
        0
  0
STYLE
  5
4AF
330
3AD
100
AcDbSymbolTableRecord
100
AcDbTextStyleTableRecord
  2
textstyle88
 70
     0
 40
0.0
 41
1.0
 50
0.0
 71
     0
 42
2.5
  3
standard
  4

1001
ACAD
1000
standard
1071
        0
  0
STYLE
  5
4B0
330
3AD
100
AcDbSymbolTableRecord
100
AcDbTextStyleTableRecord
  2
textstyle89
 70
     0
 40
0.0
 41
1.0
 50
0.0
 71
     0
 42
2.5
  3
standard
  4

1001
ACAD
1000
standard
1071
        0
  0
STYLE
  5
4B1
330
3AD
100
AcDbSymbolTableRecord
100
AcDbTextStyleTableRecord
  2
textstyle90
 70
     0
 40
0.0
 41
1.0
 50
0.0
 71
     0
 42
2.5
  3
standard
  4

1001
ACAD
1000
standard
1071
        0
  0
STYLE
  5
4B2
330
3AD
100
AcDbSymbolTableRecord
100
AcDbTextStyleTableRecord
  2
textstyle91
 70
     0
 40
0.0
 41
1.0
 50
0.0
 71
     0
 42
2.5
  3
standard
  4

1001
ACAD
1000
standard
1071
        0
  0
STYLE
  5
4B3
330
3AD
100
AcDbSymbolTableRecord
100
AcDbTextStyleTableRecord
  2
textstyle92
 70
     0
 40
0.0
 41
1.0
 50
0.0
 71
     0
 42
2.5
  3
standard
  4

1001
ACAD
1000
standard
1071
        0
  0
STYLE
  5
4B4
330
3AD
100
AcDbSymbolTableRecord
100
AcDbTextStyleTableRecord
  2
textstyle93
 70
     0
 40
0.0
 41
1.0
 50
0.0
 71
     0
 42
2.5
  3
standard
  4

1001
ACAD
1000
standard
1071
        0
  0
STYLE
  5
4B5
330
3AD
100
AcDbSymbolTableRecord
100
AcDbTextStyleTableRecord
  2
textstyle94
 70
     0
 40
0.0
 41
1.0
 50
0.0
 71
     0
 42
2.5
  3
standard
  4

1001
ACAD
1000
standard
1071
        0
  0
STYLE
  5
4B6
330
3AD
100
AcDbSymbolTableRecord
100
AcDbTextStyleTableRecord
  2
textstyle95
 70
     0
 40
0.0
 41
1.0
 50
0.0
 71
     0
 42
2.5
  3
standard
  4

1001
ACAD
1000
standard
1071
        0
  0
STYLE
  5
4B7
330
3AD
100
AcDbSymbolTableRecord
100
AcDbTextStyleTableRecord
  2
textstyle96
 70
     0
 40
0.0
 41
1.0
 50
0.0
 71
     0
 42
2.5
  3
standard
  4

1001
ACAD
1000
standard
1071
        0
  0
STYLE
  5
4B8
330
3AD
100
AcDbSymbolTableRecord
100
AcDbTextStyleTableRecord
  2
textstyle97
 70
     0
 40
0.0
 41
1.0
 50
0.0
 71
     0
 42
2.5
  3
standard
  4

1001
ACAD
1000
standard
1071
        0
  0
STYLE
  5
4B9
330
3AD
100
AcDbSymbolTableRecord
100
AcDbTextStyleTableRecord
  2
textstyle98
 70
     0
 40
0.0
 41
1.0
 50
0.0
 71
     0
 42
2.5
  3
standard
  4

1001
ACAD
1000
standard
1071
        0
  0
STYLE
  5
4BA
330
3AD
100
AcDbSymbolTableRecord
100
AcDbTextStyleTableRecord
  2
textstyle99
 70
     0
 40
0.0
 41
1.0
 50
0.0
 71
     0
 42
2.5
  3
standard
  4

1001
ACAD
1000
standard
1071
        0
  0
STYLE
  5
4BB
330
3AD
100
AcDbSymbolTableRecord
100
AcDbTextStyleTableRecord
  2
textstyle100
 70
     0
 40
0.0
 41
1.0
 50
0.0
 71
     0
 42
2.5
  3
standard
  4

1001
ACAD
1000
standard
1071
        0
  0
STYLE
  5
4BC
330
3AD
100
AcDbSymbolTableRecord
100
AcDbTextStyleTableRecord
  2
textstyle101
 70
     0
 40
0.0
 41
1.0
 50
0.0
 71
     0
 42
2.5
  3
standard
  4

1001
ACAD
1000
standard
1071
        0
  0
STYLE
  5
4BD
330
3AD
100
AcDbSymbolTableRecord
100
AcDbTextStyleTableRecord
  2
textstyle102
 70
     0
 40
0.0
 41
1.0
 50
0.0
 71
     0
 42
2.5
  3
standard
  4

1001
ACAD
1000
standard
1071
        0
  0
STYLE
  5
4BE
330
3AD
100
AcDbSymbolTableRecord
100
AcDbTextStyleTableRecord
  2
textstyle103
 70
     0
 40
0.0
 41
1.0
 50
0.0
 71
     0
 42
2.5
  3
standard
  4

1001
ACAD
1000
standard
1071
        0
  0
STYLE
  5
4BF
330
3AD
100
AcDbSymbolTableRecord
100
AcDbTextStyleTableRecord
  2
textstyle104
 70
     0
 40
0.0
 41
1.0
 50
0.0
 71
     0
 42
2.5
  3
standard
  4

1001
ACAD
1000
standard
1071
        0
  0
STYLE
  5
4C0
330
3AD
100
AcDbSymbolTableRecord
100
AcDbTextStyleTableRecord
  2
textstyle105
 70
     0
 40
0.0
 41
1.0
 50
0.0
 71
     0
 42
2.5
  3
standard
  4

1001
ACAD
1000
standard
1071
        0
  0
STYLE
  5
4C1
330
3AD
100
AcDbSymbolTableRecord
100
AcDbTextStyleTableRecord
  2
textstyle106
 70
     0
 40
0.0
 41
1.0
 50
0.0
 71
     0
 42
2.5
  3
standard
  4

1001
ACAD
1000
standard
1071
        0
  0
STYLE
  5
4C2
330
3AD
100
AcDbSymbolTableRecord
100
AcDbTextStyleTableRecord
  2
textstyle107
 70
     0
 40
0.0
 41
1.0
 50
0.0
 71
     0
 42
2.5
  3
standard
  4

1001
ACAD
1000
standard
1071
        0
  0
STYLE
  5
4C3
330
3AD
100
AcDbSymbolTableRecord
100
AcDbTextStyleTableRecord
  2
textstyle108
 70
     0
 40
0.0
 41
1.0
 50
0.0
 71
     0
 42
2.5
  3
standard
  4

1001
ACAD
1000
standard
1071
        0
  0
STYLE
  5
4C4
330
3AD
100
AcDbSymbolTableRecord
100
AcDbTextStyleTableRecord
  2
textstyle109
 70
     0
 40
0.0
 41
1.0
 50
0.0
 71
     0
 42
2.5
  3
standard
  4

1001
ACAD
1000
standard
1071
        0
  0
STYLE
  5
4C5
330
3AD
100
AcDbSymbolTableRecord
100
AcDbTextStyleTableRecord
  2
textstyle110
 70
     0
 40
0.0
 41
1.0
 50
0.0
 71
     0
 42
2.5
  3
standard
  4

1001
ACAD
1000
standard
1071
        0
  0
STYLE
  5
4C6
330
3AD
100
AcDbSymbolTableRecord
100
AcDbTextStyleTableRecord
  2
textstyle111
 70
     0
 40
0.0
 41
1.0
 50
0.0
 71
     0
 42
2.5
  3
standard
  4

1001
ACAD
1000
standard
1071
        0
  0
STYLE
  5
4C7
330
3AD
100
AcDbSymbolTableRecord
100
AcDbTextStyleTableRecord
  2
textstyle112
 70
     0
 40
0.0
 41
1.0
 50
0.0
 71
     0
 42
2.5
  3
standard
  4

1001
ACAD
1000
standard
1071
        0
  0
STYLE
  5
4C8
330
3AD
100
AcDbSymbolTableRecord
100
AcDbTextStyleTableRecord
  2
textstyle113
 70
     0
 40
0.0
 41
1.0
 50
0.0
 71
     0
 42
2.5
  3
standard
  4

1001
ACAD
1000
standard
1071
        0
  0
STYLE
  5
4C9
330
3AD
100
AcDbSymbolTableRecord
100
AcDbTextStyleTableRecord
  2
textstyle114
 70
     0
 40
0.0
 41
1.0
 50
0.0
 71
     0
 42
2.5
  3
standard
  4

1001
ACAD
1000
standard
1071
        0
  0
STYLE
  5
4CA
330
3AD
100
AcDbSymbolTableRecord
100
AcDbTextStyleTableRecord
  2
textstyle115
 70
     0
 40
0.0
 41
1.0
 50
0.0
 71
     0
 42
2.5
  3
standard
  4

1001
ACAD
1000
standard
1071
        0
  0
STYLE
  5
4CB
330
3AD
100
AcDbSymbolTableRecord
100
AcDbTextStyleTableRecord
  2
textstyle116
 70
     0
 40
0.0
 41
1.0
 50
0.0
 71
     0
 42
2.5
  3
standard
  4

1001
ACAD
1000
standard
1071
        0
  0
STYLE
  5
4CC
330
3AD
100
AcDbSymbolTableRecord
100
AcDbTextStyleTableRecord
  2
textstyle117
 70
     0
 40
0.0
 41
1.0
 50
0.0
 71
     0
 42
2.5
  3
Standard
  4

1001
ACAD
1000
Standard
1071
        0
  0
ENDTAB
  0
TABLE
  2
VIEW
  5
3B0
330
0
100
AcDbSymbolTable
 70
     0
  0
ENDTAB
  0
TABLE
  2
UCS
  5
3B1
330
0
100
AcDbSymbolTable
 70
     0
  0
ENDTAB
  0
TABLE
  2
APPID
  5
3B3
330
0
100
AcDbSymbolTable
 70
     2
  0
APPID
  5
3BC
330
3B3
100
AcDbSymbolTableRecord
100
AcDbRegAppTableRecord
  2
ACAD
 70
     0
  0
APPID
  5
413
330
3B3
100
AcDbSymbolTableRecord
100
AcDbRegAppTableRecord
  2
QCAD
 70
     0
  0
ENDTAB
  0
TABLE
  2
DIMSTYLE
  5
3B4
330
0
100
AcDbSymbolTable
 70
     2
100
AcDbDimStyleTable
  0
DIMSTYLE
105
3D0
330
3B4
100
AcDbSymbolTableRecord
100
AcDbDimStyleTableRecord
  2
Standard
 70
     0
178
     0
340
3BB
  0
DIMSTYLE
105
440
330
3B4
100
AcDbSymbolTableRecord
100
AcDbDimStyleTableRecord
  2
QCADDimStyle
 70
     0
 41
2.5
 42
0.625
 44
1.25
 73
     0
 77
     1
140
2.5
147
0.625
178
     0
340
3BB
  0
ENDTAB
  0
TABLE
  2
BLOCK_RECORD
  5
3AB
330
0
100
AcDbSymbolTable
 70
     1
  0
BLOCK_RECORD
  5
3C8
330
3AB
100
AcDbSymbolTableRecord
100
AcDbBlockTableRecord
  2
*Model_Space
340
3CB
 70
     0
280
     1
281
     0
  0
BLOCK_RECORD
  5
3C4
330
3AB
100
AcDbSymbolTableRecord
100
AcDbBlockTableRecord
  2
*Paper_Space
340
3C7
 70
     0
280
     1
281
     0
  0
BLOCK_RECORD
  5
3CC
330
3AB
100
AcDbSymbolTableRecord
100
AcDbBlockTableRecord
  2
*Paper_Space0
340
3CF
 70
     0
280
     1
281
     0
  0
ENDTAB
  0
ENDSEC
  0
SECTION
  2
BLOCKS
  0
BLOCK
  5
3C9
330
3C8
100
AcDbEntity
  8
0
100
AcDbBlockBegin
  2
*Model_Space
 70
     0
 10
0.0
 20
0.0
 30
0.0
  3
*Model_Space
  1
*Model_Space
  0
ENDBLK
  5
3CA
330
3C8
100
AcDbEntity
  8
0
100
AcDbBlockEnd
  0
BLOCK
  5
3C5
330
3C4
100
AcDbEntity
 67
     1
  8
0
100
AcDbBlockBegin
  2
*Paper_Space
 70
     0
 10
0.0
 20
0.0
 30
0.0
  3
*Paper_Space
  1
*Paper_Space
  0
ENDBLK
  5
3C6
330
3C4
100
AcDbEntity
 67
     1
  8
0
100
AcDbBlockEnd
  0
BLOCK
  5
3CD
330
3CC
100
AcDbEntity
  8
0
100
AcDbBlockBegin
  2
*Paper_Space0
 70
     0
 10
0.0
 20
0.0
 30
0.0
  3
*Paper_Space0
  1
*Paper_Space0
  0
ENDBLK
  5
3CE
330
3CC
100
AcDbEntity
  8
0
100
AcDbBlockEnd
  0
ENDSEC
  0
SECTION
  2
ENTITIES
  0
LINE
  5
47
330
3C8
100
AcDbEntity
  8
Contours
100
AcDbLine
 10
0.0
 20
0.0
 30
0.0
 11
80.0
 21
0.0
 31
0.0
  0
LINE
  5
48
330
3C8
100
AcDbEntity
  8
Contours
100
AcDbLine
 10
80.0
 20
0.0
 30
0.0
 11
80.0
 21
50.0
 31
0.0
  0
LINE
  5
49
330
3C8
100
AcDbEntity
  8
Contours
100
AcDbLine
 10
0.0
 20
50.0
 30
0.0
 11
80.0
 21
49.99999999999997
 31
0.0
  0
LINE
  5
4A
330
3C8
100
AcDbEntity
  8
Contours
100
AcDbLine
 10
0.0
 20
50.0
 30
0.0
 11
0.0
 21
0.0
 31
0.0
  0
LINE
  5
4B
330
3C8
100
AcDbEntity
  8
graduations
100
AcDbLine
 10
5.0
 20
0.25
 30
0.0
 11
10.0
 21
0.25
 31
0.0
  0
LINE
  5
4C
330
3C8
100
AcDbEntity
  8
graduations
100
AcDbLine
 10
5.0
 20
0.25
 30
0.0
 11
5.0
 21
0.25
 31
0.0
  0
MTEXT
  5
4D
330
3C8
100
AcDbEntity
  8
graduations
100
AcDbMText
 10
6.0
 20
2.225
 30
0.0
 40
1.0
 41
100.0
 46
0.0
 71
     1
 72
     1
  1
0.25
  7
textstyle0
 73
     1
 44
1.0
  0
LINE
  5
4E
330
3C8
100
AcDbEntity
  8
graduations
100
AcDbLine
 10
11.0
 20
0.5
 30
0.0
 11
16.0
 21
0.5
 31
0.0
  0
LINE
  5
4F
330
3C8
100
AcDbEntity
  8
graduations
100
AcDbLine
 10
17.0
 20
0.75
 30
0.0
 11
22.0
 21
0.75
 31
0.0
  0
LINE
  5
50
330
3C8
100
AcDbEntity
  8
graduations
100
AcDbLine
 10
23.0
 20
1.0
 30
0.0
 11
28.0
 21
1.0
 31
0.0
  0
LINE
  5
51
330
3C8
100
AcDbEntity
  8
graduations
100
AcDbLine
 10
29.0
 20
1.25
 30
0.0
 11
34.0
 21
1.25
 31
0.0
  0
LINE
  5
52
330
3C8
100
AcDbEntity
  8
graduations
100
AcDbLine
 10
35.0
 20
1.5
 30
0.0
 11
40.0
 21
1.5
 31
0.0
  0
LINE
  5
53
330
3C8
100
AcDbEntity
  8
graduations
100
AcDbLine
 10
41.0
 20
1.75
 30
0.0
 11
46.0
 21
1.75
 31
0.0
  0
LINE
  5
54
330
3C8
100
AcDbEntity
  8
graduations
100
AcDbLine
 10
47.0
 20
2.0
 30
0.0
 11
52.0
 21
2.0
 31
0.0
  0
LINE
  5
55
330
3C8
100
AcDbEntity
  8
graduations
100
AcDbLine
 10
53.0
 20
2.25
 30
0.0
 11
58.0
 21
2.25
 31
0.0
  0
LINE
  5
56
330
3C8
100
AcDbEntity
  8
graduations
100
AcDbLine
 10
59.0
 20
2.5
 30
0.0
 11
64.0
 21
2.5
 31
0.0
  0
LINE
  5
57
330
3C8
100
AcDbEntity
  8
graduations
100
AcDbLine
 10
65.0
 20
2.75
 30
0.0
 11
70.0
 21
2.75
 31
0.0
  0
LINE
  5
58
330
3C8
100
AcDbEntity
  8
graduations
100
AcDbLine
 10
71.0
 20
3.0
 30
0.0
 11
76.0
 21
3.0
 31
0.0
  0
MTEXT
  5
59
330
3C8
100
AcDbEntity
  8
graduations
100
AcDbMText
 10
12.0
 20
2.475
 30
0.0
 40
1.0
 41
100.0
 46
0.0
 71
     1
 72
     1
  1
0.50
  7
textstyle1
 73
     1
 44
1.0
  0
MTEXT
  5
5A
330
3C8
100
AcDbEntity
  8
graduations
100
AcDbMText
 10
18.0
 20
2.725
 30
0.0
 40
1.0
 41
100.0
 46
0.0
 71
     1
 72
     1
  1
0.75
  7
textstyle2
 73
     1
 44
1.0
  0
MTEXT
  5
5B
330
3C8
100
AcDbEntity
  8
graduations
100
AcDbMText
 10
24.0
 20
2.975
 30
0.0
 40
1.0
 41
100.0
 46
0.0
 71
     1
 72
     1
  1
1.00
  7
textstyle3
 73
     1
 44
1.0
  0
MTEXT
  5
5C
330
3C8
100
AcDbEntity
  8
graduations
100
AcDbMText
 10
30.0
 20
3.225
 30
0.0
 40
1.0
 41
100.0
 46
0.0
 71
     1
 72
     1
  1
1.25
  7
textstyle4
 73
     1
 44
1.0
  0
MTEXT
  5
5D
330
3C8
100
AcDbEntity
  8
graduations
100
AcDbMText
 10
36.0
 20
3.475
 30
0.0
 40
1.0
 41
100.0
 46
0.0
 71
     1
 72
     1
  1
1.50
  7
textstyle5
 73
     1
 44
1.0
  0
MTEXT
  5
5E
330
3C8
100
AcDbEntity
  8
graduations
100
AcDbMText
 10
42.0
 20
3.725
 30
0.0
 40
1.0
 41
100.0
 46
0.0
 71
     1
 72
     1
  1
1.75
  7
textstyle6
 73
     1
 44
1.0
  0
MTEXT
  5
5F
330
3C8
100
AcDbEntity
  8
graduations
100
AcDbMText
 10
48.0
 20
3.975
 30
0.0
 40
1.0
 41
100.0
 46
0.0
 71
     1
 72
     1
  1
2.00
  7
textstyle7
 73
     1
 44
1.0
  0
MTEXT
  5
60
330
3C8
100
AcDbEntity
  8
graduations
100
AcDbMText
 10
54.0
 20
4.225
 30
0.0
 40
1.0
 41
100.0
 46
0.0
 71
     1
 72
     1
  1
2.25
  7
textstyle8
 73
     1
 44
1.0
  0
MTEXT
  5
61
330
3C8
100
AcDbEntity
  8
graduations
100
AcDbMText
 10
60.0
 20
4.475
 30
0.0
 40
1.0
 41
100.0
 46
0.0
 71
     1
 72
     1
  1
2.50
  7
textstyle9
 73
     1
 44
1.0
  0
MTEXT
  5
62
330
3C8
100
AcDbEntity
  8
graduations
100
AcDbMText
 10
66.0
 20
4.725
 30
0.0
 40
1.0
 41
100.0
 46
0.0
 71
     1
 72
     1
  1
2.75
  7
textstyle10
 73
     1
 44
1.0
  0
MTEXT
  5
63
330
3C8
100
AcDbEntity
  8
graduations
100
AcDbMText
 10
72.0
 20
4.975
 30
0.0
 40
1.0
 41
100.0
 46
0.0
 71
     1
 72
     1
  1
3.00
  7
textstyle11
 73
     1
 44
1.0
  0
LINE
  5
64
330
3C8
100
AcDbEntity
  8
graduations
100
AcDbLine
 10
5.0
 20
3.25
 30
0.0
 11
10.0
 21
3.25
 31
0.0
  0
LINE
  5
65
330
3C8
100
AcDbEntity
  8
graduations
100
AcDbLine
 10
11.0
 20
3.5
 30
0.0
 11
16.0
 21
3.5
 31
0.0
  0
LINE
  5
66
330
3C8
100
AcDbEntity
  8
graduations
100
AcDbLine
 10
17.0
 20
3.75
 30
0.0
 11
22.0
 21
3.75
 31
0.0
  0
LINE
  5
67
330
3C8
100
AcDbEntity
  8
graduations
100
AcDbLine
 10
23.0
 20
4.0
 30
0.0
 11
28.0
 21
4.0
 31
0.0
  0
LINE
  5
68
330
3C8
100
AcDbEntity
  8
graduations
100
AcDbLine
 10
29.0
 20
4.25
 30
0.0
 11
34.0
 21
4.25
 31
0.0
  0
MTEXT
  5
69
330
3C8
100
AcDbEntity
  8
graduations
100
AcDbMText
 10
6.0
 20
5.225
 30
0.0
 40
1.0
 41
100.0
 46
0.0
 71
     1
 72
     1
  1
3.25
  7
textstyle12
 73
     1
 44
1.0
  0
MTEXT
  5
6A
330
3C8
100
AcDbEntity
  8
graduations
100
AcDbMText
 10
12.0
 20
5.475
 30
0.0
 40
1.0
 41
100.0
 46
0.0
 71
     1
 72
     1
  1
3.50
  7
textstyle13
 73
     1
 44
1.0
  0
MTEXT
  5
6B
330
3C8
100
AcDbEntity
  8
graduations
100
AcDbMText
 10
18.0
 20
5.725
 30
0.0
 40
1.0
 41
100.0
 46
0.0
 71
     1
 72
     1
  1
3.75
  7
textstyle14
 73
     1
 44
1.0
  0
MTEXT
  5
6C
330
3C8
100
AcDbEntity
  8
graduations
100
AcDbMText
 10
24.0
 20
5.975
 30
0.0
 40
1.0
 41
100.0
 46
0.0
 71
     1
 72
     1
  1
4.00
  7
textstyle15
 73
     1
 44
1.0
  0
MTEXT
  5
6D
330
3C8
100
AcDbEntity
  8
graduations
100
AcDbMText
 10
30.0
 20
6.225
 30
0.0
 40
1.0
 41
100.0
 46
0.0
 71
     1
 72
     1
  1
4.25
  7
textstyle16
 73
     1
 44
1.0
  0
LINE
  5
6E
330
3C8
100
AcDbEntity
  8
graduations
100
AcDbLine
 10
35.0
 20
4.5
 30
0.0
 11
40.0
 21
4.5
 31
0.0
  0
LINE
  5
6F
330
3C8
100
AcDbEntity
  8
graduations
100
AcDbLine
 10
41.0
 20
4.75
 30
0.0
 11
46.0
 21
4.75
 31
0.0
  0
LINE
  5
70
330
3C8
100
AcDbEntity
  8
graduations
100
AcDbLine
 10
47.0
 20
5.0
 30
0.0
 11
52.0
 21
5.0
 31
0.0
  0
LINE
  5
71
330
3C8
100
AcDbEntity
  8
graduations
100
AcDbLine
 10
53.0
 20
5.25
 30
0.0
 11
58.0
 21
5.25
 31
0.0
  0
LINE
  5
72
330
3C8
100
AcDbEntity
  8
graduations
100
AcDbLine
 10
59.0
 20
5.5
 30
0.0
 11
64.0
 21
5.5
 31
0.0
  0
LINE
  5
73
330
3C8
100
AcDbEntity
  8
graduations
100
AcDbLine
 10
65.0
 20
5.75
 30
0.0
 11
70.0
 21
5.75
 31
0.0
  0
LINE
  5
74
330
3C8
100
AcDbEntity
  8
graduations
100
AcDbLine
 10
71.0
 20
6.0
 30
0.0
 11
76.0
 21
6.0
 31
0.0
  0
MTEXT
  5
75
330
3C8
100
AcDbEntity
  8
graduations
100
AcDbMText
 10
36.0
 20
6.475
 30
0.0
 40
1.0
 41
100.0
 46
0.0
 71
     1
 72
     1
  1
4.50
  7
textstyle17
 73
     1
 44
1.0
  0
MTEXT
  5
76
330
3C8
100
AcDbEntity
  8
graduations
100
AcDbMText
 10
42.0
 20
6.725
 30
0.0
 40
1.0
 41
100.0
 46
0.0
 71
     1
 72
     1
  1
4.75\P
  7
textstyle18
 73
     1
 44
1.0
  0
MTEXT
  5
77
330
3C8
100
AcDbEntity
  8
graduations
100
AcDbMText
 10
48.0
 20
6.975
 30
0.0
 40
1.0
 41
100.0
 46
0.0
 71
     1
 72
     1
  1
5.00
  7
textstyle19
 73
     1
 44
1.0
  0
MTEXT
  5
78
330
3C8
100
AcDbEntity
  8
graduations
100
AcDbMText
 10
54.0
 20
7.225
 30
0.0
 40
1.0
 41
100.0
 46
0.0
 71
     1
 72
     1
  1
5.25
  7
textstyle20
 73
     1
 44
1.0
  0
MTEXT
  5
79
330
3C8
100
AcDbEntity
  8
graduations
100
AcDbMText
 10
60.0
 20
7.475
 30
0.0
 40
1.0
 41
100.0
 46
0.0
 71
     1
 72
     1
  1
5.50
  7
textstyle21
 73
     1
 44
1.0
  0
MTEXT
  5
7A
330
3C8
100
AcDbEntity
  8
graduations
100
AcDbMText
 10
66.0
 20
7.725
 30
0.0
 40
1.0
 41
100.0
 46
0.0
 71
     1
 72
     1
  1
5.75
  7
textstyle22
 73
     1
 44
1.0
  0
MTEXT
  5
7B
330
3C8
100
AcDbEntity
  8
graduations
100
AcDbMText
 10
72.0
 20
7.975
 30
0.0
 40
1.0
 41
100.0
 46
0.0
 71
     1
 72
     1
  1
6.00
  7
textstyle23
 73
     1
 44
1.0
  0
LINE
  5
7C
330
3C8
100
AcDbEntity
  8
graduations
100
AcDbLine
 10
5.0
 20
6.25
 30
0.0
 11
10.0
 21
6.25
 31
0.0
  0
LINE
  5
7D
330
3C8
100
AcDbEntity
  8
graduations
100
AcDbLine
 10
5.0
 20
6.25
 30
0.0
 11
5.0
 21
6.25
 31
0.0
  0
LINE
  5
7E
330
3C8
100
AcDbEntity
  8
graduations
100
AcDbLine
 10
11.0
 20
6.5
 30
0.0
 11
16.0
 21
6.5
 31
0.0
  0
LINE
  5
7F
330
3C8
100
AcDbEntity
  8
graduations
100
AcDbLine
 10
17.0
 20
6.75
 30
0.0
 11
22.0
 21
6.75
 31
0.0
  0
LINE
  5
80
330
3C8
100
AcDbEntity
  8
graduations
100
AcDbLine
 10
23.0
 20
7.0
 30
0.0
 11
28.0
 21
7.0
 31
0.0
  0
LINE
  5
81
330
3C8
100
AcDbEntity
  8
graduations
100
AcDbLine
 10
29.0
 20
7.25
 30
0.0
 11
34.0
 21
7.25
 31
0.0
  0
LINE
  5
82
330
3C8
100
AcDbEntity
  8
graduations
100
AcDbLine
 10
35.0
 20
7.5
 30
0.0
 11
40.0
 21
7.5
 31
0.0
  0
LINE
  5
83
330
3C8
100
AcDbEntity
  8
graduations
100
AcDbLine
 10
41.0
 20
7.75
 30
0.0
 11
46.0
 21
7.75
 31
0.0
  0
LINE
  5
84
330
3C8
100
AcDbEntity
  8
graduations
100
AcDbLine
 10
47.0
 20
8.0
 30
0.0
 11
52.0
 21
8.0
 31
0.0
  0
LINE
  5
85
330
3C8
100
AcDbEntity
  8
graduations
100
AcDbLine
 10
53.0
 20
8.25
 30
0.0
 11
58.0
 21
8.25
 31
0.0
  0
LINE
  5
86
330
3C8
100
AcDbEntity
  8
graduations
100
AcDbLine
 10
59.0
 20
8.5
 30
0.0
 11
64.0
 21
8.5
 31
0.0
  0
LINE
  5
87
330
3C8
100
AcDbEntity
  8
graduations
100
AcDbLine
 10
65.0
 20
8.75
 30
0.0
 11
70.0
 21
8.75
 31
0.0
  0
LINE
  5
88
330
3C8
100
AcDbEntity
  8
graduations
100
AcDbLine
 10
71.0
 20
9.0
 30
0.0
 11
76.0
 21
9.0
 31
0.0
  0
LINE
  5
89
330
3C8
100
AcDbEntity
  8
graduations
100
AcDbLine
 10
5.0
 20
9.25
 30
0.0
 11
10.0
 21
9.25
 31
0.0
  0
LINE
  5
8A
330
3C8
100
AcDbEntity
  8
graduations
100
AcDbLine
 10
11.0
 20
9.5
 30
0.0
 11
16.0
 21
9.5
 31
0.0
  0
LINE
  5
8B
330
3C8
100
AcDbEntity
  8
graduations
100
AcDbLine
 10
17.0
 20
9.75
 30
0.0
 11
22.0
 21
9.75
 31
0.0
  0
LINE
  5
8C
330
3C8
100
AcDbEntity
  8
graduations
100
AcDbLine
 10
23.0
 20
10.0
 30
0.0
 11
28.0
 21
10.0
 31
0.0
  0
LINE
  5
8D
330
3C8
100
AcDbEntity
  8
graduations
100
AcDbLine
 10
29.0
 20
10.25
 30
0.0
 11
34.0
 21
10.25
 31
0.0
  0
LINE
  5
8E
330
3C8
100
AcDbEntity
  8
graduations
100
AcDbLine
 10
35.0
 20
10.5
 30
0.0
 11
40.0
 21
10.5
 31
0.0
  0
LINE
  5
8F
330
3C8
100
AcDbEntity
  8
graduations
100
AcDbLine
 10
41.0
 20
10.75
 30
0.0
 11
46.0
 21
10.75
 31
0.0
  0
LINE
  5
90
330
3C8
100
AcDbEntity
  8
graduations
100
AcDbLine
 10
47.0
 20
11.0
 30
0.0
 11
52.0
 21
11.0
 31
0.0
  0
LINE
  5
91
330
3C8
100
AcDbEntity
  8
graduations
100
AcDbLine
 10
53.0
 20
11.25
 30
0.0
 11
58.0
 21
11.25
 31
0.0
  0
LINE
  5
92
330
3C8
100
AcDbEntity
  8
graduations
100
AcDbLine
 10
59.0
 20
11.5
 30
0.0
 11
64.0
 21
11.5
 31
0.0
  0
LINE
  5
93
330
3C8
100
AcDbEntity
  8
graduations
100
AcDbLine
 10
65.0
 20
11.75
 30
0.0
 11
70.0
 21
11.75
 31
0.0
  0
LINE
  5
94
330
3C8
100
AcDbEntity
  8
graduations
100
AcDbLine
 10
71.0
 20
12.0
 30
0.0
 11
76.0
 21
12.0
 31
0.0
  0
MTEXT
  5
95
330
3C8
100
AcDbEntity
  8
graduations
100
AcDbMText
 10
6.0
 20
8.225
 30
0.0
 40
1.0
 41
100.0
 46
0.0
 71
     1
 72
     1
  1
6.25
  7
textstyle24
 73
     1
 44
1.0
  0
MTEXT
  5
96
330
3C8
100
AcDbEntity
  8
graduations
100
AcDbMText
 10
12.0
 20
8.475
 30
0.0
 40
1.0
 41
100.0
 46
0.0
 71
     1
 72
     1
  1
6.50
  7
textstyle25
 73
     1
 44
1.0
  0
MTEXT
  5
97
330
3C8
100
AcDbEntity
  8
graduations
100
AcDbMText
 10
18.0
 20
8.725
 30
0.0
 40
1.0
 41
100.0
 46
0.0
 71
     1
 72
     1
  1
6.75
  7
textstyle26
 73
     1
 44
1.0
  0
MTEXT
  5
98
330
3C8
100
AcDbEntity
  8
graduations
100
AcDbMText
 10
6.0
 20
11.225
 30
0.0
 40
1.0
 41
100.0
 46
0.0
 71
     1
 72
     1
  1
9.25
  7
textstyle27
 73
     1
 44
1.0
  0
MTEXT
  5
99
330
3C8
100
AcDbEntity
  8
graduations
100
AcDbMText
 10
12.0
 20
11.475
 30
0.0
 40
1.0
 41
100.0
 46
0.0
 71
     1
 72
     1
  1
9.50
  7
textstyle28
 73
     1
 44
1.0
  0
MTEXT
  5
9A
330
3C8
100
AcDbEntity
  8
graduations
100
AcDbMText
 10
18.0
 20
11.725
 30
0.0
 40
1.0
 41
100.0
 46
0.0
 71
     1
 72
     1
  1
9.75
  7
textstyle29
 73
     1
 44
1.0
  0
MTEXT
  5
9B
330
3C8
100
AcDbEntity
  8
graduations
100
AcDbMText
 10
24.0
 20
8.975
 30
0.0
 40
1.0
 41
100.0
 46
0.0
 71
     1
 72
     1
  1
7.00
  7
textstyle30
 73
     1
 44
1.0
  0
MTEXT
  5
9C
330
3C8
100
AcDbEntity
  8
graduations
100
AcDbMText
 10
24.0
 20
11.975
 30
0.0
 40
1.0
 41
100.0
 46
0.0
 71
     1
 72
     1
  1
10.00
  7
textstyle31
 73
     1
 44
1.0
  0
MTEXT
  5
9D
330
3C8
100
AcDbEntity
  8
graduations
100
AcDbMText
 10
30.0
 20
9.225
 30
0.0
 40
1.0
 41
100.0
 46
0.0
 71
     1
 72
     1
  1
7.25
  7
textstyle32
 73
     1
 44
1.0
  0
MTEXT
  5
9E
330
3C8
100
AcDbEntity
  8
graduations
100
AcDbMText
 10
30.0
 20
12.225
 30
0.0
 40
1.0
 41
100.0
 46
0.0
 71
     1
 72
     1
  1
10.25
  7
textstyle33
 73
     1
 44
1.0
  0
MTEXT
  5
9F
330
3C8
100
AcDbEntity
  8
graduations
100
AcDbMText
 10
36.0
 20
9.475
 30
0.0
 40
1.0
 41
100.0
 46
0.0
 71
     1
 72
     1
  1
7.50
  7
textstyle34
 73
     1
 44
1.0
  0
MTEXT
  5
A0
330
3C8
100
AcDbEntity
  8
graduations
100
AcDbMText
 10
36.0
 20
12.475
 30
0.0
 40
1.0
 41
100.0
 46
0.0
 71
     1
 72
     1
  1
10.50
  7
textstyle35
 73
     1
 44
1.0
  0
MTEXT
  5
A1
330
3C8
100
AcDbEntity
  8
graduations
100
AcDbMText
 10
42.0
 20
9.725
 30
0.0
 40
1.0
 41
100.0
 46
0.0
 71
     1
 72
     1
  1
7.75
  7
textstyle36
 73
     1
 44
1.0
  0
MTEXT
  5
A2
330
3C8
100
AcDbEntity
  8
graduations
100
AcDbMText
 10
42.0
 20
12.725
 30
0.0
 40
1.0
 41
100.0
 46
0.0
 71
     1
 72
     1
  1
10.75
  7
textstyle37
 73
     1
 44
1.0
  0
MTEXT
  5
A3
330
3C8
100
AcDbEntity
  8
graduations
100
AcDbMText
 10
48.0
 20
9.975
 30
0.0
 40
1.0
 41
100.0
 46
0.0
 71
     1
 72
     1
  1
8.00
  7
textstyle38
 73
     1
 44
1.0
  0
MTEXT
  5
A4
330
3C8
100
AcDbEntity
  8
graduations
100
AcDbMText
 10
48.0
 20
12.975
 30
0.0
 40
1.0
 41
100.0
 46
0.0
 71
     1
 72
     1
  1
11.00
  7
textstyle39
 73
     1
 44
1.0
  0
MTEXT
  5
A5
330
3C8
100
AcDbEntity
  8
graduations
100
AcDbMText
 10
54.0
 20
10.225
 30
0.0
 40
1.0
 41
100.0
 46
0.0
 71
     1
 72
     1
  1
8.25
  7
textstyle40
 73
     1
 44
1.0
  0
MTEXT
  5
A6
330
3C8
100
AcDbEntity
  8
graduations
100
AcDbMText
 10
54.0
 20
13.225
 30
0.0
 40
1.0
 41
100.0
 46
0.0
 71
     1
 72
     1
  1
11.25
  7
textstyle41
 73
     1
 44
1.0
  0
MTEXT
  5
A7
330
3C8
100
AcDbEntity
  8
graduations
100
AcDbMText
 10
60.0
 20
10.475
 30
0.0
 40
1.0
 41
100.0
 46
0.0
 71
     1
 72
     1
  1
8.50
  7
textstyle42
 73
     1
 44
1.0
  0
MTEXT
  5
A8
330
3C8
100
AcDbEntity
  8
graduations
100
AcDbMText
 10
60.0
 20
13.475
 30
0.0
 40
1.0
 41
100.0
 46
0.0
 71
     1
 72
     1
  1
11.50
  7
textstyle43
 73
     1
 44
1.0
  0
MTEXT
  5
A9
330
3C8
100
AcDbEntity
  8
graduations
100
AcDbMText
 10
66.0
 20
10.725
 30
0.0
 40
1.0
 41
100.0
 46
0.0
 71
     1
 72
     1
  1
8.75
  7
textstyle44
 73
     1
 44
1.0
  0
MTEXT
  5
AA
330
3C8
100
AcDbEntity
  8
graduations
100
AcDbMText
 10
66.0
 20
13.725
 30
0.0
 40
1.0
 41
100.0
 46
0.0
 71
     1
 72
     1
  1
11.75
  7
textstyle45
 73
     1
 44
1.0
  0
MTEXT
  5
AB
330
3C8
100
AcDbEntity
  8
graduations
100
AcDbMText
 10
72.0
 20
10.975
 30
0.0
 40
1.0
 41
100.0
 46
0.0
 71
     1
 72
     1
  1
9.00
  7
textstyle46
 73
     1
 44
1.0
  0
MTEXT
  5
AC
330
3C8
100
AcDbEntity
  8
graduations
100
AcDbMText
 10
72.0
 20
13.975
 30
0.0
 40
1.0
 41
100.0
 46
0.0
 71
     1
 72
     1
  1
12.00
  7
textstyle47
 73
     1
 44
1.0
  0
LINE
  5
AD
330
3C8
100
AcDbEntity
  8
graduations
100
AcDbLine
 10
1.000000000000014
 20
50.0
 30
0.0
 11
1.000000000000014
 21
42.0
 31
0.0
  0
LINE
  5
AE
330
3C8
100
AcDbEntity
  8
graduations
100
AcDbLine
 10
2.0
 20
50.0
 30
0.0
 11
2.0
 21
42.0
 31
0.0
  0
LINE
  5
AF
330
3C8
100
AcDbEntity
  8
graduations
100
AcDbLine
 10
3.000000000000014
 20
50.0
 30
0.0
 11
3.0
 21
42.0
 31
0.0
  0
LINE
  5
B0
330
3C8
100
AcDbEntity
  8
graduations
  6
Continuous
370
    20
100
AcDbLine
 10
5.0
 20
50.0
 30
0.0
 11
5.0
 21
40.0
 31
0.0
  0
LINE
  5
B1
330
3C8
100
AcDbEntity
  8
graduations
100
AcDbLine
 10
4.000000000000014
 20
50.0
 30
0.0
 11
4.0
 21
42.0
 31
0.0
  0
LINE
  5
B2
330
3C8
100
AcDbEntity
  8
graduations
100
AcDbLine
 10
6.000000000000014
 20
50.0
 30
0.0
 11
6.000000000000014
 21
41.99999999999999
 31
0.0
  0
LINE
  5
B3
330
3C8
100
AcDbEntity
  8
graduations
100
AcDbLine
 10
7.0
 20
50.0
 30
0.0
 11
7.000000000000014
 21
41.99999999999999
 31
0.0
  0
LINE
  5
B4
330
3C8
100
AcDbEntity
  8
graduations
100
AcDbLine
 10
8.000000000000014
 20
49.99999999999999
 30
0.0
 11
8.000000000000014
 21
41.99999999999999
 31
0.0
  0
LINE
  5
B5
330
3C8
100
AcDbEntity
  8
graduations
100
AcDbLine
 10
9.000000000000014
 20
50.0
 30
0.0
 11
9.0
 21
42.0
 31
0.0
  0
LINE
  5
B6
330
3C8
100
AcDbEntity
  8
graduations
  6
Continuous
370
    20
100
AcDbLine
 10
10.00000000000001
 20
49.99999999999999
 30
0.0
 11
10.0
 21
38.0
 31
0.0
  0
LINE
  5
B7
330
3C8
100
AcDbEntity
  8
graduations
100
AcDbLine
 10
11.00000000000001
 20
49.99999999999999
 30
0.0
 11
11.0
 21
42.0
 31
0.0
  0
LINE
  5
B8
330
3C8
100
AcDbEntity
  8
graduations
100
AcDbLine
 10
12.0
 20
49.99999999999999
 30
0.0
 11
12.0
 21
42.0
 31
0.0
  0
LINE
  5
B9
330
3C8
100
AcDbEntity
  8
graduations
100
AcDbLine
 10
13.0
 20
50.0
 30
0.0
 11
13.0
 21
42.0
 31
0.0
  0
LINE
  5
BA
330
3C8
100
AcDbEntity
  8
graduations
  6
Continuous
370
    20
100
AcDbLine
 10
15.0
 20
50.0
 30
0.0
 11
15.0
 21
39.99999999999999
 31
0.0
  0
LINE
  5
BB
330
3C8
100
AcDbEntity
  8
graduations
100
AcDbLine
 10
14.00000000000001
 20
49.99999999999999
 30
0.0
 11
14.0
 21
42.00000000000001
 31
0.0
  0
LINE
  5
BC
330
3C8
100
AcDbEntity
  8
graduations
100
AcDbLine
 10
16.00000000000003
 20
49.99999999999999
 30
0.0
 11
16.0
 21
41.99999999999999
 31
0.0
  0
LINE
  5
BD
330
3C8
100
AcDbEntity
  8
graduations
100
AcDbLine
 10
17.00000000000003
 20
49.99999999999999
 30
0.0
 11
17.0
 21
42.0
 31
0.0
  0
LINE
  5
BE
330
3C8
100
AcDbEntity
  8
graduations
100
AcDbLine
 10
18.0
 20
50.0
 30
0.0
 11
18.0
 21
41.99999999999999
 31
0.0
  0
LINE
  5
BF
330
3C8
100
AcDbEntity
  8
graduations
100
AcDbLine
 10
19.0
 20
50.0
 30
0.0
 11
19.0
 21
41.99999999999999
 31
0.0
  0
LINE
  5
C0
330
3C8
100
AcDbEntity
  8
graduations
  6
Continuous
370
    20
100
AcDbLine
 10
20.00000000000001
 20
49.99999999999999
 30
0.0
 11
20.0
 21
38.00000000000001
 31
0.0
  0
LINE
  5
C1
330
3C8
100
AcDbEntity
  8
graduations
100
AcDbLine
 10
21.0
 20
49.99999999999999
 30
0.0
 11
21.0
 21
41.99999999999999
 31
0.0
  0
LINE
  5
C2
330
3C8
100
AcDbEntity
  8
graduations
100
AcDbLine
 10
22.00000000000001
 20
49.99999999999999
 30
0.0
 11
22.0
 21
42.0
 31
0.0
  0
LINE
  5
C3
330
3C8
100
AcDbEntity
  8
graduations
100
AcDbLine
 10
23.00000000000003
 20
49.99999999999998
 30
0.0
 11
23.0
 21
41.99999999999999
 31
0.0
  0
LINE
  5
C4
330
3C8
100
AcDbEntity
  8
graduations
  6
Continuous
370
    20
100
AcDbLine
 10
25.0
 20
49.99999999999999
 30
0.0
 11
25.0
 21
39.99999999999999
 31
0.0
  0
LINE
  5
C5
330
3C8
100
AcDbEntity
  8
graduations
100
AcDbLine
 10
24.0
 20
50.00000000000001
 30
0.0
 11
24.0
 21
42.0
 31
0.0
  0
LINE
  5
C6
330
3C8
100
AcDbEntity
  8
graduations
100
AcDbLine
 10
26.0
 20
50.00000000000001
 30
0.0
 11
26.0
 21
41.99999999999999
 31
0.0
  0
LINE
  5
C7
330
3C8
100
AcDbEntity
  8
graduations
100
AcDbLine
 10
27.0
 20
49.99999999999999
 30
0.0
 11
27.0
 21
41.99999999999999
 31
0.0
  0
LINE
  5
C8
330
3C8
100
AcDbEntity
  8
graduations
100
AcDbLine
 10
28.0
 20
49.99999999999999
 30
0.0
 11
28.0
 21
41.99999999999999
 31
0.0
  0
LINE
  5
C9
330
3C8
100
AcDbEntity
  8
graduations
100
AcDbLine
 10
29.0
 20
50.00000000000001
 30
0.0
 11
29.0
 21
41.99999999999999
 31
0.0
  0
LINE
  5
CA
330
3C8
100
AcDbEntity
  8
graduations
  6
Continuous
370
    20
100
AcDbLine
 10
30.0
 20
50.0
 30
0.0
 11
30.0
 21
37.99999999999999
 31
0.0
  0
LINE
  5
CB
330
3C8
100
AcDbEntity
  8
graduations
100
AcDbLine
 10
31.00000000000001
 20
49.99999999999999
 30
0.0
 11
31.0
 21
41.99999999999999
 31
0.0
  0
LINE
  5
CC
330
3C8
100
AcDbEntity
  8
graduations
100
AcDbLine
 10
32.0
 20
49.99999999999999
 30
0.0
 11
32.0
 21
41.99999999999999
 31
0.0
  0
LINE
  5
CD
330
3C8
100
AcDbEntity
  8
graduations
100
AcDbLine
 10
33.0
 20
50.0
 30
0.0
 11
33.0
 21
42.00000000000001
 31
0.0
  0
LINE
  5
CE
330
3C8
100
AcDbEntity
  8
graduations
  6
Continuous
370
    20
100
AcDbLine
 10
35.0
 20
50.00000000000001
 30
0.0
 11
35.0
 21
39.99999999999998
 31
0.0
  0
LINE
  5
CF
330
3C8
100
AcDbEntity
  8
graduations
100
AcDbLine
 10
34.0
 20
50.0
 30
0.0
 11
34.0
 21
41.99999999999997
 31
0.0
  0
LINE
  5
D0
330
3C8
100
AcDbEntity
  8
graduations
100
AcDbLine
 10
36.0
 20
49.99999999999999
 30
0.0
 11
36.0
 21
41.99999999999999
 31
0.0
  0
LINE
  5
D1
330
3C8
100
AcDbEntity
  8
graduations
100
AcDbLine
 10
37.0
 20
49.99999999999999
 30
0.0
 11
37.0
 21
41.99999999999997
 31
0.0
  0
LINE
  5
D2
330
3C8
100
AcDbEntity
  8
graduations
100
AcDbLine
 10
38.0
 20
49.99999999999999
 30
0.0
 11
38.0
 21
41.99999999999999
 31
0.0
  0
LINE
  5
D3
330
3C8
100
AcDbEntity
  8
graduations
100
AcDbLine
 10
39.0
 20
50.0
 30
0.0
 11
39.0
 21
41.99999999999999
 31
0.0
  0
LINE
  5
D4
330
3C8
100
AcDbEntity
  8
graduations
  6
Continuous
370
    20
100
AcDbLine
 10
40.0
 20
50.0
 30
0.0
 11
40.0
 21
37.99999999999997
 31
0.0
  0
LINE
  5
D5
330
3C8
100
AcDbEntity
  8
graduations
100
AcDbLine
 10
41.0
 20
50.0
 30
0.0
 11
41.0
 21
41.99999999999999
 31
0.0
  0
LINE
  5
D6
330
3C8
100
AcDbEntity
  8
graduations
100
AcDbLine
 10
42.0
 20
49.99999999999999
 30
0.0
 11
42.0
 21
42.0
 31
0.0
  0
LINE
  5
D7
330
3C8
100
AcDbEntity
  8
graduations
100
AcDbLine
 10
43.0
 20
49.99999999999999
 30
0.0
 11
43.00000000000001
 21
41.99999999999995
 31
0.0
  0
LINE
  5
D8
330
3C8
100
AcDbEntity
  8
graduations
  6
Continuous
370
    20
100
AcDbLine
 10
45.0
 20
49.99999999999999
 30
0.0
 11
45.0
 21
40.0
 31
0.0
  0
LINE
  5
D9
330
3C8
100
AcDbEntity
  8
graduations
100
AcDbLine
 10
44.0
 20
49.99999999999997
 30
0.0
 11
44.0
 21
41.99999999999998
 31
0.0
  0
LINE
  5
DA
330
3C8
100
AcDbEntity
  8
graduations
100
AcDbLine
 10
46.00000000000003
 20
49.99999999999996
 30
0.0
 11
46.0
 21
41.99999999999996
 31
0.0
  0
LINE
  5
DB
330
3C8
100
AcDbEntity
  8
graduations
100
AcDbLine
 10
47.0
 20
49.99999999999998
 30
0.0
 11
47.0
 21
41.99999999999998
 31
0.0
  0
LINE
  5
DC
330
3C8
100
AcDbEntity
  8
graduations
100
AcDbLine
 10
48.0
 20
49.99999999999997
 30
0.0
 11
48.0
 21
42.0
 31
0.0
  0
LINE
  5
DD
330
3C8
100
AcDbEntity
  8
graduations
100
AcDbLine
 10
49.0
 20
49.99999999999999
 30
0.0
 11
49.0
 21
41.99999999999998
 31
0.0
  0
LINE
  5
DE
330
3C8
100
AcDbEntity
  8
graduations
  6
Continuous
370
    20
100
AcDbLine
 10
50.0
 20
49.99999999999996
 30
0.0
 11
50.0
 21
38.00000000000003
 31
0.0
  0
LINE
  5
DF
330
3C8
100
AcDbEntity
  8
graduations
100
AcDbLine
 10
51.0
 20
49.99999999999997
 30
0.0
 11
51.0
 21
42.00000000000001
 31
0.0
  0
LINE
  5
E0
330
3C8
100
AcDbEntity
  8
graduations
100
AcDbLine
 10
52.0
 20
49.99999999999997
 30
0.0
 11
52.0
 21
41.99999999999996
 31
0.0
  0
LINE
  5
E1
330
3C8
100
AcDbEntity
  8
graduations
100
AcDbLine
 10
53.0
 20
49.99999999999996
 30
0.0
 11
53.0
 21
41.99999999999993
 31
0.0
  0
LINE
  5
E2
330
3C8
100
AcDbEntity
  8
graduations
  6
Continuous
370
    20
100
AcDbLine
 10
55.0
 20
49.99999999999999
 30
0.0
 11
55.0
 21
39.99999999999997
 31
0.0
  0
LINE
  5
E3
330
3C8
100
AcDbEntity
  8
graduations
100
AcDbLine
 10
54.0
 20
49.99999999999996
 30
0.0
 11
54.0
 21
41.99999999999996
 31
0.0
  0
LINE
  5
E4
330
3C8
100
AcDbEntity
  8
graduations
100
AcDbLine
 10
56.0
 20
49.99999999999998
 30
0.0
 11
56.0
 21
42.0
 31
0.0
  0
LINE
  5
E5
330
3C8
100
AcDbEntity
  8
graduations
100
AcDbLine
 10
57.0
 20
50.00000000000001
 30
0.0
 11
57.0
 21
41.99999999999999
 31
0.0
  0
LINE
  5
E6
330
3C8
100
AcDbEntity
  8
graduations
100
AcDbLine
 10
58.0
 20
49.99999999999997
 30
0.0
 11
58.0
 21
41.99999999999999
 31
0.0
  0
LINE
  5
E7
330
3C8
100
AcDbEntity
  8
graduations
100
AcDbLine
 10
59.0
 20
50.00000000000001
 30
0.0
 11
59.0
 21
41.99999999999994
 31
0.0
  0
LINE
  5
E8
330
3C8
100
AcDbEntity
  8
graduations
  6
Continuous
370
    20
100
AcDbLine
 10
60.0
 20
49.99999999999996
 30
0.0
 11
60.0
 21
37.99999999999999
 31
0.0
  0
LINE
  5
E9
330
3C8
100
AcDbEntity
  8
graduations
100
AcDbLine
 10
61.0
 20
49.99999999999998
 30
0.0
 11
61.0
 21
41.99999999999998
 31
0.0
  0
LINE
  5
EA
330
3C8
100
AcDbEntity
  8
graduations
100
AcDbLine
 10
62.0
 20
49.99999999999999
 30
0.0
 11
62.0
 21
41.99999999999991
 31
0.0
  0
LINE
  5
EB
330
3C8
100
AcDbEntity
  8
graduations
100
AcDbLine
 10
63.00000000000003
 20
49.99999999999991
 30
0.0
 11
63.0
 21
41.99999999999996
 31
0.0
  0
LINE
  5
EC
330
3C8
100
AcDbEntity
  8
graduations
  6
Continuous
370
    20
100
AcDbLine
 10
65.0
 20
49.99999999999993
 30
0.0
 11
65.0
 21
39.99999999999991
 31
0.0
  0
LINE
  5
ED
330
3C8
100
AcDbEntity
  8
graduations
100
AcDbLine
 10
64.0
 20
50.0
 30
0.0
 11
64.0
 21
42.0
 31
0.0
  0
LINE
  5
EE
330
3C8
100
AcDbEntity
  8
graduations
100
AcDbLine
 10
66.0
 20
49.99999999999999
 30
0.0
 11
66.0
 21
41.99999999999999
 31
0.0
  0
LINE
  5
EF
330
3C8
100
AcDbEntity
  8
graduations
100
AcDbLine
 10
67.0
 20
50.0
 30
0.0
 11
67.0
 21
42.0
 31
0.0
  0
LINE
  5
F0
330
3C8
100
AcDbEntity
  8
graduations
100
AcDbLine
 10
68.0
 20
50.0
 30
0.0
 11
68.0
 21
41.99999999999996
 31
0.0
  0
LINE
  5
F1
330
3C8
100
AcDbEntity
  8
graduations
100
AcDbLine
 10
69.0
 20
49.99999999999999
 30
0.0
 11
69.0
 21
42.0
 31
0.0
  0
LINE
  5
F2
330
3C8
100
AcDbEntity
  8
graduations
  6
Continuous
370
    20
100
AcDbLine
 10
70.0
 20
49.99999999999998
 30
0.0
 11
70.0
 21
37.99999999999996
 31
0.0
  0
LINE
  5
F3
330
3C8
100
AcDbEntity
  8
graduations
100
AcDbLine
 10
71.0
 20
49.99999999999994
 30
0.0
 11
71.0
 21
41.99999999999999
 31
0.0
  0
LINE
  5
F4
330
3C8
100
AcDbEntity
  8
graduations
100
AcDbLine
 10
72.0
 20
49.99999999999998
 30
0.0
 11
72.0
 21
41.99999999999999
 31
0.0
  0
LINE
  5
F5
330
3C8
100
AcDbEntity
  8
graduations
100
AcDbLine
 10
73.0
 20
49.99999999999997
 30
0.0
 11
73.0
 21
42.00000000000003
 31
0.0
  0
LINE
  5
F6
330
3C8
100
AcDbEntity
  8
graduations
  6
Continuous
370
    20
100
AcDbLine
 10
75.0
 20
49.99999999999995
 30
0.0
 11
75.0
 21
39.99999999999998
 31
0.0
  0
LINE
  5
F7
330
3C8
100
AcDbEntity
  8
graduations
100
AcDbLine
 10
74.0
 20
50.00000000000002
 30
0.0
 11
74.0
 21
41.99999999999996
 31
0.0
  0
LINE
  5
F8
330
3C8
100
AcDbEntity
  8
graduations
100
AcDbLine
 10
76.0
 20
50.00000000000001
 30
0.0
 11
76.0
 21
42.00000000000006
 31
0.0
  0
LINE
  5
F9
330
3C8
100
AcDbEntity
  8
graduations
100
AcDbLine
 10
77.0
 20
49.99999999999997
 30
0.0
 11
77.0
 21
41.99999999999996
 31
0.0
  0
LINE
  5
FA
330
3C8
100
AcDbEntity
  8
graduations
100
AcDbLine
 10
78.0
 20
50.00000000000001
 30
0.0
 11
78.0
 21
41.99999999999995
 31
0.0
  0
LINE
  5
FB
330
3C8
100
AcDbEntity
  8
graduations
100
AcDbLine
 10
79.0
 20
49.99999999999993
 30
0.0
 11
79.0
 21
41.99999999999999
 31
0.0
  0
LINE
  5
FC
330
3C8
100
AcDbEntity
  8
graduations
  6
Continuous
370
    20
100
AcDbLine
 10
80.0
 20
49.99999999999997
 30
0.0
 11
80.0
 21
38.00000000000002
 31
0.0
  0
MTEXT
  5
FD
330
3C8
100
AcDbEntity
  8
textes
100
AcDbMText
 10
9.036799999997797
 20
32.76800000000101
 30
0.0
 40
4.0
 41
100.0
 46
0.0
 71
     3
 72
     1
  1
1
  7
textstyle48
 11
-1.0
 21
3.673940397442059E-16
 31
0.0
 73
     1
 44
1.0
  0
MTEXT
  5
FE
330
3C8
100
AcDbEntity
  8
textes
100
AcDbMText
 10
19.0367999999978
 20
32.76800000000102
 30
0.0
 40
4.0
 41
100.0
 46
0.0
 71
     3
 72
     1
  1
2
  7
textstyle49
 11
-1.0
 21
3.673940397442059E-16
 31
0.0
 73
     1
 44
1.0
  0
MTEXT
  5
FF
330
3C8
100
AcDbEntity
  8
textes
100
AcDbMText
 10
29.0367999999978
 20
32.76800000000099
 30
0.0
 40
4.0
 41
100.0
 46
0.0
 71
     3
 72
     1
  1
3
  7
textstyle50
 11
-1.0
 21
3.673940397442059E-16
 31
0.0
 73
     1
 44
1.0
  0
MTEXT
  5
100
330
3C8
100
AcDbEntity
  8
textes
100
AcDbMText
 10
39.0367999999978
 20
32.76800000000104
 30
0.0
 40
4.0
 41
100.0
 46
0.0
 71
     3
 72
     1
  1
4
  7
textstyle51
 11
-1.0
 21
3.673940397442059E-16
 31
0.0
 73
     1
 44
1.0
  0
MTEXT
  5
101
330
3C8
100
AcDbEntity
  8
textes
100
AcDbMText
 10
49.03679999999781
 20
32.768000000001
 30
0.0
 40
4.0
 41
100.0
 46
0.0
 71
     3
 72
     1
  1
5
  7
textstyle52
 11
-1.0
 21
3.673940397442059E-16
 31
0.0
 73
     1
 44
1.0
  0
MTEXT
  5
102
330
3C8
100
AcDbEntity
  8
textes
100
AcDbMText
 10
59.03679999999781
 20
32.76800000000103
 30
0.0
 40
4.0
 41
100.0
 46
0.0
 71
     3
 72
     1
  1
6
  7
textstyle53
 11
-1.0
 21
3.673940397442059E-16
 31
0.0
 73
     1
 44
1.0
  0
MTEXT
  5
103
330
3C8
100
AcDbEntity
  8
textes
100
AcDbMText
 10
69.03679999999781
 20
32.768000000001
 30
0.0
 40
4.0
 41
100.0
 46
0.0
 71
     3
 72
     1
  1
7
  7
textstyle54
 11
-1.0
 21
3.673940397442059E-16
 31
0.0
 73
     1
 44
1.0
  0
MTEXT
  5
104
330
3C8
100
AcDbEntity
  8
textes
100
AcDbMText
 10
77.53679999999781
 20
32.76800000000104
 30
0.0
 40
4.0
 41
100.0
 46
0.0
 71
     3
 72
     1
  1
8
  7
textstyle55
 11
-1.0
 21
3.673940397442059E-16
 31
0.0
 73
     1
 44
1.0
  0
LINE
  5
105
330
3C8
100
AcDbEntity
  8
graduations
100
AcDbLine
 10
1.500000000000014
 20
49.0
 30
0.0
 11
1.500000000000014
 21
43.0
 31
0.0
  0
LINE
  5
106
330
3C8
100
AcDbEntity
  8
graduations
100
AcDbLine
 10
2.5
 20
49.0
 30
0.0
 11
2.5
 21
43.0
 31
0.0
  0
LINE
  5
107
330
3C8
100
AcDbEntity
  8
graduations
100
AcDbLine
 10
3.500000000000014
 20
49.0
 30
0.0
 11
3.5
 21
43.0
 31
0.0
  0
LINE
  5
108
330
3C8
100
AcDbEntity
  8
graduations
100
AcDbLine
 10
4.5
 20
49.0
 30
0.0
 11
4.5
 21
43.0
 31
0.0
  0
LINE
  5
109
330
3C8
100
AcDbEntity
  8
graduations
100
AcDbLine
 10
5.500000000000014
 20
49.0
 30
0.0
 11
5.500000000000014
 21
43.0
 31
0.0
  0
LINE
  5
10A
330
3C8
100
AcDbEntity
  8
graduations
100
AcDbLine
 10
6.500000000000014
 20
49.0
 30
0.0
 11
6.5
 21
43.0
 31
0.0
  0
LINE
  5
10B
330
3C8
100
AcDbEntity
  8
graduations
100
AcDbLine
 10
7.5
 20
49.0
 30
0.0
 11
7.5
 21
43.0
 31
0.0
  0
LINE
  5
10C
330
3C8
100
AcDbEntity
  8
graduations
100
AcDbLine
 10
8.5
 20
49.0
 30
0.0
 11
8.5
 21
43.0
 31
0.0
  0
LINE
  5
10D
330
3C8
100
AcDbEntity
  8
graduations
100
AcDbLine
 10
9.500000000000014
 20
48.99999999999999
 30
0.0
 11
9.5
 21
43.0
 31
0.0
  0
LINE
  5
10E
330
3C8
100
AcDbEntity
  8
graduations
100
AcDbLine
 10
10.5
 20
49.0
 30
0.0
 11
10.5
 21
43.0
 31
0.0
  0
LINE
  5
10F
330
3C8
100
AcDbEntity
  8
graduations
100
AcDbLine
 10
11.50000000000001
 20
48.99999999999999
 30
0.0
 11
11.5
 21
43.0
 31
0.0
  0
LINE
  5
110
330
3C8
100
AcDbEntity
  8
graduations
100
AcDbLine
 10
12.50000000000001
 20
48.99999999999999
 30
0.0
 11
12.50000000000001
 21
43.0
 31
0.0
  0
LINE
  5
111
330
3C8
100
AcDbEntity
  8
graduations
100
AcDbLine
 10
13.50000000000001
 20
49.0
 30
0.0
 11
13.50000000000001
 21
42.99999999999999
 31
0.0
  0
LINE
  5
112
330
3C8
100
AcDbEntity
  8
graduations
100
AcDbLine
 10
14.50000000000001
 20
48.99999999999999
 30
0.0
 11
14.5
 21
43.00000000000001
 31
0.0
  0
LINE
  5
113
330
3C8
100
AcDbEntity
  8
graduations
100
AcDbLine
 10
15.50000000000001
 20
48.99999999999999
 30
0.0
 11
15.50000000000001
 21
42.99999999999999
 31
0.0
  0
LINE
  5
114
330
3C8
100
AcDbEntity
  8
graduations
100
AcDbLine
 10
16.50000000000003
 20
48.99999999999999
 30
0.0
 11
16.50000000000001
 21
42.99999999999999
 31
0.0
  0
LINE
  5
115
330
3C8
100
AcDbEntity
  8
graduations
100
AcDbLine
 10
17.5
 20
48.99999999999999
 30
0.0
 11
17.5
 21
43.0
 31
0.0
  0
LINE
  5
116
330
3C8
100
AcDbEntity
  8
graduations
100
AcDbLine
 10
18.5
 20
49.00000000000001
 30
0.0
 11
18.5
 21
42.99999999999999
 31
0.0
  0
LINE
  5
117
330
3C8
100
AcDbEntity
  8
graduations
100
AcDbLine
 10
19.5
 20
49.0
 30
0.0
 11
19.50000000000001
 21
42.99999999999999
 31
0.0
  0
LINE
  5
118
330
3C8
100
AcDbEntity
  8
graduations
100
AcDbLine
 10
20.50000000000001
 20
48.99999999999999
 30
0.0
 11
20.5
 21
42.99999999999999
 31
0.0
  0
LINE
  5
119
330
3C8
100
AcDbEntity
  8
graduations
100
AcDbLine
 10
21.5
 20
49.0
 30
0.0
 11
21.5
 21
42.99999999999999
 31
0.0
  0
LINE
  5
11A
330
3C8
100
AcDbEntity
  8
graduations
100
AcDbLine
 10
22.5
 20
49.0
 30
0.0
 11
22.5
 21
42.99999999999999
 31
0.0
  0
LINE
  5
11B
330
3C8
100
AcDbEntity
  8
graduations
100
AcDbLine
 10
23.50000000000003
 20
48.99999999999998
 30
0.0
 11
23.5
 21
42.99999999999999
 31
0.0
  0
LINE
  5
11C
330
3C8
100
AcDbEntity
  8
graduations
100
AcDbLine
 10
24.50000000000001
 20
48.99999999999999
 30
0.0
 11
24.5
 21
43.0
 31
0.0
  0
LINE
  5
11D
330
3C8
100
AcDbEntity
  8
graduations
100
AcDbLine
 10
25.5
 20
49.0
 30
0.0
 11
25.5
 21
43.00000000000001
 31
0.0
  0
LINE
  5
11E
330
3C8
100
AcDbEntity
  8
graduations
100
AcDbLine
 10
26.5
 20
48.99999999999999
 30
0.0
 11
26.5
 21
43.0
 31
0.0
  0
LINE
  5
11F
330
3C8
100
AcDbEntity
  8
graduations
100
AcDbLine
 10
27.50000000000001
 20
48.99999999999997
 30
0.0
 11
27.50000000000001
 21
42.99999999999999
 31
0.0
  0
LINE
  5
120
330
3C8
100
AcDbEntity
  8
graduations
100
AcDbLine
 10
28.50000000000001
 20
48.99999999999999
 30
0.0
 11
28.5
 21
42.99999999999999
 31
0.0
  0
LINE
  5
121
330
3C8
100
AcDbEntity
  8
graduations
100
AcDbLine
 10
29.5
 20
49.0
 30
0.0
 11
29.5
 21
42.99999999999999
 31
0.0
  0
LINE
  5
122
330
3C8
100
AcDbEntity
  8
graduations
100
AcDbLine
 10
30.50000000000001
 20
48.99999999999999
 30
0.0
 11
30.5
 21
42.99999999999999
 31
0.0
  0
LINE
  5
123
330
3C8
100
AcDbEntity
  8
graduations
100
AcDbLine
 10
31.50000000000001
 20
48.99999999999999
 30
0.0
 11
31.5
 21
43.0
 31
0.0
  0
LINE
  5
124
330
3C8
100
AcDbEntity
  8
graduations
100
AcDbLine
 10
32.50000000000003
 20
48.99999999999997
 30
0.0
 11
32.5
 21
42.99999999999999
 31
0.0
  0
LINE
  5
125
330
3C8
100
AcDbEntity
  8
graduations
100
AcDbLine
 10
33.5
 20
48.99999999999999
 30
0.0
 11
33.5
 21
43.0
 31
0.0
  0
LINE
  5
126
330
3C8
100
AcDbEntity
  8
graduations
100
AcDbLine
 10
34.5
 20
48.99999999999999
 30
0.0
 11
34.50000000000001
 21
42.99999999999997
 31
0.0
  0
LINE
  5
127
330
3C8
100
AcDbEntity
  8
graduations
100
AcDbLine
 10
35.50000000000001
 20
48.99999999999999
 30
0.0
 11
35.5
 21
42.99999999999999
 31
0.0
  0
LINE
  5
128
330
3C8
100
AcDbEntity
  8
graduations
100
AcDbLine
 10
36.5
 20
49.0
 30
0.0
 11
36.5
 21
42.99999999999997
 31
0.0
  0
LINE
  5
129
330
3C8
100
AcDbEntity
  8
graduations
100
AcDbLine
 10
37.50000000000001
 20
48.99999999999999
 30
0.0
 11
37.5
 21
42.99999999999999
 31
0.0
  0
LINE
  5
12A
330
3C8
100
AcDbEntity
  8
graduations
100
AcDbLine
 10
38.50000000000001
 20
48.99999999999998
 30
0.0
 11
38.5
 21
42.99999999999999
 31
0.0
  0
LINE
  5
12B
330
3C8
100
AcDbEntity
  8
graduations
100
AcDbLine
 10
39.50000000000001
 20
48.99999999999998
 30
0.0
 11
39.5
 21
42.99999999999998
 31
0.0
  0
LINE
  5
12C
330
3C8
100
AcDbEntity
  8
graduations
100
AcDbLine
 10
40.5
 20
48.99999999999999
 30
0.0
 11
40.5
 21
42.99999999999998
 31
0.0
  0
LINE
  5
12D
330
3C8
100
AcDbEntity
  8
graduations
100
AcDbLine
 10
41.5
 20
49.0
 30
0.0
 11
41.5
 21
42.99999999999999
 31
0.0
  0
LINE
  5
12E
330
3C8
100
AcDbEntity
  8
graduations
100
AcDbLine
 10
42.5
 20
48.99999999999999
 30
0.0
 11
42.5
 21
43.0
 31
0.0
  0
LINE
  5
12F
330
3C8
100
AcDbEntity
  8
graduations
100
AcDbLine
 10
43.5
 20
48.99999999999998
 30
0.0
 11
43.5
 21
43.0
 31
0.0
  0
LINE
  5
130
330
3C8
100
AcDbEntity
  8
graduations
100
AcDbLine
 10
44.5
 20
49.00000000000001
 30
0.0
 11
44.50000000000001
 21
42.99999999999997
 31
0.0
  0
LINE
  5
131
330
3C8
100
AcDbEntity
  8
graduations
100
AcDbLine
 10
45.5
 20
48.99999999999999
 30
0.0
 11
45.5
 21
43.00000000000001
 31
0.0
  0
LINE
  5
132
330
3C8
100
AcDbEntity
  8
graduations
100
AcDbLine
 10
46.50000000000003
 20
48.99999999999996
 30
0.0
 11
46.5
 21
42.99999999999998
 31
0.0
  0
LINE
  5
133
330
3C8
100
AcDbEntity
  8
graduations
100
AcDbLine
 10
47.5
 20
49.00000000000001
 30
0.0
 11
47.5
 21
43.0
 31
0.0
  0
LINE
  5
134
330
3C8
100
AcDbEntity
  8
graduations
100
AcDbLine
 10
48.5
 20
48.99999999999999
 30
0.0
 11
48.5
 21
43.00000000000001
 31
0.0
  0
LINE
  5
135
330
3C8
100
AcDbEntity
  8
graduations
100
AcDbLine
 10
49.50000000000003
 20
48.99999999999996
 30
0.0
 11
49.5
 21
42.99999999999996
 31
0.0
  0
LINE
  5
136
330
3C8
100
AcDbEntity
  8
graduations
100
AcDbLine
 10
50.5
 20
48.99999999999999
 30
0.0
 11
50.5
 21
42.99999999999999
 31
0.0
  0
LINE
  5
137
330
3C8
100
AcDbEntity
  8
graduations
100
AcDbLine
 10
51.50000000000003
 20
48.99999999999994
 30
0.0
 11
51.5
 21
42.99999999999999
 31
0.0
  0
LINE
  5
138
330
3C8
100
AcDbEntity
  8
graduations
100
AcDbLine
 10
52.5
 20
48.99999999999999
 30
0.0
 11
52.5
 21
43.0
 31
0.0
  0
LINE
  5
139
330
3C8
100
AcDbEntity
  8
graduations
100
AcDbLine
 10
53.5
 20
48.99999999999999
 30
0.0
 11
53.5
 21
43.0
 31
0.0
  0
LINE
  5
13A
330
3C8
100
AcDbEntity
  8
graduations
100
AcDbLine
 10
54.5
 20
48.99999999999996
 30
0.0
 11
54.5
 21
43.0
 31
0.0
  0
LINE
  5
13B
330
3C8
100
AcDbEntity
  8
graduations
100
AcDbLine
 10
55.5
 20
49.0
 30
0.0
 11
55.5
 21
43.0
 31
0.0
  0
LINE
  5
13C
330
3C8
100
AcDbEntity
  8
graduations
100
AcDbLine
 10
56.50000000000003
 20
48.99999999999994
 30
0.0
 11
56.5
 21
42.99999999999999
 31
0.0
  0
LINE
  5
13D
330
3C8
100
AcDbEntity
  8
graduations
100
AcDbLine
 10
57.50000000000003
 20
48.99999999999993
 30
0.0
 11
57.5
 21
43.00000000000004
 31
0.0
  0
LINE
  5
13E
330
3C8
100
AcDbEntity
  8
graduations
100
AcDbLine
 10
58.5
 20
48.99999999999999
 30
0.0
 11
58.5
 21
42.99999999999998
 31
0.0
  0
LINE
  5
13F
330
3C8
100
AcDbEntity
  8
graduations
100
AcDbLine
 10
59.50000000000003
 20
48.99999999999996
 30
0.0
 11
59.5
 21
42.99999999999998
 31
0.0
  0
LINE
  5
140
330
3C8
100
AcDbEntity
  8
graduations
100
AcDbLine
 10
60.5
 20
48.99999999999998
 30
0.0
 11
60.5
 21
43.00000000000001
 31
0.0
  0
LINE
  5
141
330
3C8
100
AcDbEntity
  8
graduations
100
AcDbLine
 10
61.5
 20
49.00000000000004
 30
0.0
 11
61.5
 21
42.99999999999998
 31
0.0
  0
LINE
  5
142
330
3C8
100
AcDbEntity
  8
graduations
100
AcDbLine
 10
62.5
 20
48.99999999999997
 30
0.0
 11
62.5
 21
42.99999999999999
 31
0.0
  0
LINE
  5
143
330
3C8
100
AcDbEntity
  8
graduations
100
AcDbLine
 10
63.5
 20
48.99999999999999
 30
0.0
 11
63.5
 21
42.99999999999996
 31
0.0
  0
LINE
  5
144
330
3C8
100
AcDbEntity
  8
graduations
100
AcDbLine
 10
64.5
 20
48.99999999999999
 30
0.0
 11
64.5
 21
42.99999999999997
 31
0.0
  0
LINE
  5
145
330
3C8
100
AcDbEntity
  8
graduations
100
AcDbLine
 10
65.5
 20
48.99999999999994
 30
0.0
 11
65.5
 21
43.00000000000003
 31
0.0
  0
LINE
  5
146
330
3C8
100
AcDbEntity
  8
graduations
100
AcDbLine
 10
66.5
 20
48.99999999999997
 30
0.0
 11
66.5
 21
42.99999999999997
 31
0.0
  0
LINE
  5
147
330
3C8
100
AcDbEntity
  8
graduations
100
AcDbLine
 10
67.5
 20
48.99999999999996
 30
0.0
 11
67.5
 21
42.99999999999999
 31
0.0
  0
LINE
  5
148
330
3C8
100
AcDbEntity
  8
graduations
100
AcDbLine
 10
68.5
 20
49.00000000000003
 30
0.0
 11
68.5
 21
43.00000000000004
 31
0.0
  0
LINE
  5
149
330
3C8
100
AcDbEntity
  8
graduations
100
AcDbLine
 10
69.5
 20
48.99999999999997
 30
0.0
 11
69.5
 21
43.0
 31
0.0
  0
LINE
  5
14A
330
3C8
100
AcDbEntity
  8
graduations
100
AcDbLine
 10
70.5
 20
48.99999999999999
 30
0.0
 11
70.5
 21
42.99999999999999
 31
0.0
  0
LINE
  5
14B
330
3C8
100
AcDbEntity
  8
graduations
100
AcDbLine
 10
71.5
 20
48.99999999999999
 30
0.0
 11
71.5
 21
43.00000000000003
 31
0.0
  0
LINE
  5
14C
330
3C8
100
AcDbEntity
  8
graduations
100
AcDbLine
 10
72.5
 20
49.0
 30
0.0
 11
72.5
 21
42.99999999999999
 31
0.0
  0
LINE
  5
14D
330
3C8
100
AcDbEntity
  8
graduations
100
AcDbLine
 10
73.5
 20
49.00000000000001
 30
0.0
 11
73.5
 21
43.0
 31
0.0
  0
LINE
  5
14E
330
3C8
100
AcDbEntity
  8
graduations
100
AcDbLine
 10
74.5
 20
48.99999999999999
 30
0.0
 11
74.5
 21
42.99999999999998
 31
0.0
  0
LINE
  5
14F
330
3C8
100
AcDbEntity
  8
graduations
100
AcDbLine
 10
75.5
 20
49.0
 30
0.0
 11
75.5
 21
42.99999999999994
 31
0.0
  0
LINE
  5
150
330
3C8
100
AcDbEntity
  8
graduations
100
AcDbLine
 10
76.5
 20
48.99999999999996
 30
0.0
 11
76.5
 21
42.99999999999999
 31
0.0
  0
LINE
  5
151
330
3C8
100
AcDbEntity
  8
graduations
100
AcDbLine
 10
77.5
 20
48.99999999999993
 30
0.0
 11
77.5
 21
42.99999999999994
 31
0.0
  0
LINE
  5
152
330
3C8
100
AcDbEntity
  8
graduations
100
AcDbLine
 10
78.5
 20
49.00000000000004
 30
0.0
 11
78.5
 21
43.00000000000001
 31
0.0
  0
LINE
  5
153
330
3C8
100
AcDbEntity
  8
graduations
100
AcDbLine
 10
79.5
 20
48.99999999999993
 30
0.0
 11
79.5
 21
42.99999999999994
 31
0.0
  0
LINE
  5
154
330
3C8
100
AcDbEntity
  8
graduations
100
AcDbLine
 10
0.5000000000000142
 20
49.0
 30
0.0
 11
0.5
 21
43.0
 31
0.0
  0
LINE
  5
155
330
3C8
100
AcDbEntity
  8
Contours
100
AcDbLine
 10
0.2500000000000142
 20
47.5
 30
0.0
 11
0.2500000000000142
 21
44.5
 31
0.0
  0
LINE
  5
156
330
3C8
100
AcDbEntity
  8
Contours
100
AcDbLine
 10
0.7500000000000142
 20
47.5
 30
0.0
 11
0.75
 21
44.5
 31
0.0
  0
LINE
  5
157
330
3C8
100
AcDbEntity
  8
Contours
100
AcDbLine
 10
1.250000000000014
 20
47.5
 30
0.0
 11
1.25
 21
44.5
 31
0.0
  0
LINE
  5
158
330
3C8
100
AcDbEntity
  8
Contours
100
AcDbLine
 10
1.750000000000014
 20
47.5
 30
0.0
 11
1.75
 21
44.5
 31
0.0
  0
LINE
  5
159
330
3C8
100
AcDbEntity
  8
Contours
100
AcDbLine
 10
2.250000000000014
 20
47.5
 30
0.0
 11
2.25
 21
44.5
 31
0.0
  0
LINE
  5
15A
330
3C8
100
AcDbEntity
  8
Contours
100
AcDbLine
 10
2.750000000000014
 20
47.5
 30
0.0
 11
2.75
 21
44.5
 31
0.0
  0
LINE
  5
15B
330
3C8
100
AcDbEntity
  8
Contours
100
AcDbLine
 10
3.250000000000014
 20
47.5
 30
0.0
 11
3.250000000000014
 21
44.5
 31
0.0
  0
LINE
  5
15C
330
3C8
100
AcDbEntity
  8
Contours
100
AcDbLine
 10
3.75
 20
47.5
 30
0.0
 11
3.75
 21
44.5
 31
0.0
  0
LINE
  5
15D
330
3C8
100
AcDbEntity
  8
Contours
100
AcDbLine
 10
4.25
 20
47.5
 30
0.0
 11
4.25
 21
44.5
 31
0.0
  0
LINE
  5
15E
330
3C8
100
AcDbEntity
  8
Contours
100
AcDbLine
 10
4.750000000000014
 20
47.5
 30
0.0
 11
4.75
 21
44.5
 31
0.0
  0
LINE
  5
15F
330
3C8
100
AcDbEntity
  8
Contours
100
AcDbLine
 10
5.25
 20
47.5
 30
0.0
 11
5.250000000000014
 21
44.5
 31
0.0
  0
LINE
  5
160
330
3C8
100
AcDbEntity
  8
Contours
100
AcDbLine
 10
5.75
 20
47.5
 30
0.0
 11
5.75
 21
44.5
 31
0.0
  0
LINE
  5
161
330
3C8
100
AcDbEntity
  8
Contours
100
AcDbLine
 10
6.25
 20
47.5
 30
0.0
 11
6.25
 21
44.5
 31
0.0
  0
LINE
  5
162
330
3C8
100
AcDbEntity
  8
Contours
100
AcDbLine
 10
6.750000000000014
 20
47.5
 30
0.0
 11
6.75
 21
44.5
 31
0.0
  0
LINE
  5
163
330
3C8
100
AcDbEntity
  8
Contours
100
AcDbLine
 10
7.25
 20
47.5
 30
0.0
 11
7.250000000000014
 21
44.5
 31
0.0
  0
LINE
  5
164
330
3C8
100
AcDbEntity
  8
Contours
100
AcDbLine
 10
7.75
 20
47.5
 30
0.0
 11
7.75
 21
44.5
 31
0.0
  0
LINE
  5
165
330
3C8
100
AcDbEntity
  8
Contours
100
AcDbLine
 10
8.25
 20
47.5
 30
0.0
 11
8.250000000000014
 21
44.5
 31
0.0
  0
LINE
  5
166
330
3C8
100
AcDbEntity
  8
Contours
100
AcDbLine
 10
8.75
 20
47.5
 30
0.0
 11
8.75
 21
44.5
 31
0.0
  0
LINE
  5
167
330
3C8
100
AcDbEntity
  8
Contours
100
AcDbLine
 10
9.25
 20
47.5
 30
0.0
 11
9.25
 21
44.5
 31
0.0
  0
LINE
  5
168
330
3C8
100
AcDbEntity
  8
Contours
100
AcDbLine
 10
9.750000000000014
 20
47.5
 30
0.0
 11
9.75
 21
44.5
 31
0.0
  0
LINE
  5
169
330
3C8
100
AcDbEntity
  8
Contours
100
AcDbLine
 10
10.25000000000001
 20
47.49999999999999
 30
0.0
 11
10.25
 21
44.50000000000001
 31
0.0
  0
LINE
  5
16A
330
3C8
100
AcDbEntity
  8
Contours
100
AcDbLine
 10
10.75000000000001
 20
47.49999999999999
 30
0.0
 11
10.75
 21
44.5
 31
0.0
  0
LINE
  5
16B
330
3C8
100
AcDbEntity
  8
Contours
100
AcDbLine
 10
11.25
 20
47.5
 30
0.0
 11
11.25000000000001
 21
44.49999999999999
 31
0.0
  0
LINE
  5
16C
330
3C8
100
AcDbEntity
  8
Contours
100
AcDbLine
 10
11.75000000000001
 20
47.5
 30
0.0
 11
11.75
 21
44.5
 31
0.0
  0
LINE
  5
16D
330
3C8
100
AcDbEntity
  8
Contours
100
AcDbLine
 10
12.25000000000001
 20
47.49999999999999
 30
0.0
 11
12.25000000000001
 21
44.49999999999999
 31
0.0
  0
LINE
  5
16E
330
3C8
100
AcDbEntity
  8
Contours
100
AcDbLine
 10
12.75
 20
47.5
 30
0.0
 11
12.75
 21
44.5
 31
0.0
  0
LINE
  5
16F
330
3C8
100
AcDbEntity
  8
Contours
100
AcDbLine
 10
13.25
 20
47.5
 30
0.0
 11
13.25
 21
44.49999999999999
 31
0.0
  0
LINE
  5
170
330
3C8
100
AcDbEntity
  8
Contours
100
AcDbLine
 10
13.75000000000001
 20
47.49999999999999
 30
0.0
 11
13.75
 21
44.49999999999999
 31
0.0
  0
LINE
  5
171
330
3C8
100
AcDbEntity
  8
Contours
100
AcDbLine
 10
14.25
 20
47.5
 30
0.0
 11
14.25000000000001
 21
44.49999999999999
 31
0.0
  0
LINE
  5
172
330
3C8
100
AcDbEntity
  8
Contours
100
AcDbLine
 10
14.75000000000001
 20
47.49999999999999
 30
0.0
 11
14.75
 21
44.5
 31
0.0
  0
LINE
  5
173
330
3C8
100
AcDbEntity
  8
Contours
100
AcDbLine
 10
15.25000000000001
 20
47.49999999999999
 30
0.0
 11
15.25
 21
44.5
 31
0.0
  0
LINE
  5
174
330
3C8
100
AcDbEntity
  8
Contours
100
AcDbLine
 10
15.75
 20
47.5
 30
0.0
 11
15.75
 21
44.49999999999999
 31
0.0
  0
LINE
  5
175
330
3C8
100
AcDbEntity
  8
Contours
100
AcDbLine
 10
16.25
 20
47.5
 30
0.0
 11
16.25
 21
44.50000000000001
 31
0.0
  0
LINE
  5
176
330
3C8
100
AcDbEntity
  8
Contours
100
AcDbLine
 10
16.75
 20
47.49999999999999
 30
0.0
 11
16.75
 21
44.5
 31
0.0
  0
LINE
  5
177
330
3C8
100
AcDbEntity
  8
Contours
100
AcDbLine
 10
17.25000000000001
 20
47.49999999999999
 30
0.0
 11
17.25000000000001
 21
44.49999999999999
 31
0.0
  0
LINE
  5
178
330
3C8
100
AcDbEntity
  8
Contours
100
AcDbLine
 10
17.75000000000003
 20
47.49999999999999
 30
0.0
 11
17.75
 21
44.5
 31
0.0
  0
LINE
  5
179
330
3C8
100
AcDbEntity
  8
Contours
100
AcDbLine
 10
18.25000000000001
 20
47.49999999999999
 30
0.0
 11
18.25
 21
44.49999999999999
 31
0.0
  0
LINE
  5
17A
330
3C8
100
AcDbEntity
  8
Contours
100
AcDbLine
 10
18.75000000000001
 20
47.49999999999999
 30
0.0
 11
18.75
 21
44.5
 31
0.0
  0
LINE
  5
17B
330
3C8
100
AcDbEntity
  8
Contours
100
AcDbLine
 10
19.25
 20
47.5
 30
0.0
 11
19.25
 21
44.5
 31
0.0
  0
LINE
  5
17C
330
3C8
100
AcDbEntity
  8
Contours
100
AcDbLine
 10
19.75
 20
47.49999999999999
 30
0.0
 11
19.75
 21
44.49999999999999
 31
0.0
  0
LINE
  5
17D
330
3C8
100
AcDbEntity
  8
Contours
100
AcDbLine
 10
20.25
 20
47.5
 30
0.0
 11
20.25
 21
44.49999999999999
 31
0.0
  0
LINE
  5
17E
330
3C8
100
AcDbEntity
  8
Contours
100
AcDbLine
 10
20.75
 20
47.5
 30
0.0
 11
20.75
 21
44.49999999999999
 31
0.0
  0
LINE
  5
17F
330
3C8
100
AcDbEntity
  8
Contours
100
AcDbLine
 10
21.25000000000001
 20
47.49999999999999
 30
0.0
 11
21.25
 21
44.50000000000001
 31
0.0
  0
LINE
  5
180
330
3C8
100
AcDbEntity
  8
Contours
100
AcDbLine
 10
21.75
 20
47.49999999999999
 30
0.0
 11
21.75000000000001
 21
44.49999999999999
 31
0.0
  0
LINE
  5
181
330
3C8
100
AcDbEntity
  8
Contours
100
AcDbLine
 10
22.25
 20
47.49999999999999
 30
0.0
 11
22.25
 21
44.50000000000001
 31
0.0
  0
LINE
  5
182
330
3C8
100
AcDbEntity
  8
Contours
100
AcDbLine
 10
22.75000000000001
 20
47.49999999999999
 30
0.0
 11
22.75000000000001
 21
44.49999999999999
 31
0.0
  0
LINE
  5
183
330
3C8
100
AcDbEntity
  8
Contours
100
AcDbLine
 10
23.25000000000001
 20
47.49999999999998
 30
0.0
 11
23.25
 21
44.49999999999999
 31
0.0
  0
LINE
  5
184
330
3C8
100
AcDbEntity
  8
Contours
100
AcDbLine
 10
23.75
 20
47.5
 30
0.0
 11
23.75
 21
44.49999999999999
 31
0.0
  0
LINE
  5
185
330
3C8
100
AcDbEntity
  8
Contours
100
AcDbLine
 10
24.25
 20
47.49999999999999
 30
0.0
 11
24.25
 21
44.49999999999999
 31
0.0
  0
LINE
  5
186
330
3C8
100
AcDbEntity
  8
Contours
100
AcDbLine
 10
24.75000000000001
 20
47.49999999999999
 30
0.0
 11
24.75000000000001
 21
44.49999999999997
 31
0.0
  0
LINE
  5
187
330
3C8
100
AcDbEntity
  8
Contours
100
AcDbLine
 10
25.25000000000001
 20
47.49999999999997
 30
0.0
 11
25.25
 21
44.50000000000001
 31
0.0
  0
LINE
  5
188
330
3C8
100
AcDbEntity
  8
Contours
100
AcDbLine
 10
25.75
 20
47.49999999999999
 30
0.0
 11
25.75
 21
44.5
 31
0.0
  0
LINE
  5
189
330
3C8
100
AcDbEntity
  8
Contours
100
AcDbLine
 10
26.25
 20
47.5
 30
0.0
 11
26.25000000000001
 21
44.49999999999998
 31
0.0
  0
LINE
  5
18A
330
3C8
100
AcDbEntity
  8
Contours
100
AcDbLine
 10
26.75
 20
47.49999999999999
 30
0.0
 11
26.75
 21
44.49999999999999
 31
0.0
  0
LINE
  5
18B
330
3C8
100
AcDbEntity
  8
Contours
100
AcDbLine
 10
27.25
 20
47.49999999999999
 30
0.0
 11
27.25
 21
44.49999999999999
 31
0.0
  0
LINE
  5
18C
330
3C8
100
AcDbEntity
  8
Contours
100
AcDbLine
 10
27.75
 20
47.49999999999999
 30
0.0
 11
27.75
 21
44.49999999999999
 31
0.0
  0
LINE
  5
18D
330
3C8
100
AcDbEntity
  8
Contours
100
AcDbLine
 10
28.25
 20
47.5
 30
0.0
 11
28.25
 21
44.49999999999999
 31
0.0
  0
LINE
  5
18E
330
3C8
100
AcDbEntity
  8
Contours
100
AcDbLine
 10
28.75
 20
47.49999999999999
 30
0.0
 11
28.75
 21
44.50000000000001
 31
0.0
  0
LINE
  5
18F
330
3C8
100
AcDbEntity
  8
Contours
100
AcDbLine
 10
29.25
 20
47.50000000000001
 30
0.0
 11
29.25
 21
44.5
 31
0.0
  0
LINE
  5
190
330
3C8
100
AcDbEntity
  8
Contours
100
AcDbLine
 10
29.75
 20
47.50000000000001
 30
0.0
 11
29.75
 21
44.50000000000001
 31
0.0
  0
LINE
  5
191
330
3C8
100
AcDbEntity
  8
Contours
100
AcDbLine
 10
30.25000000000001
 20
47.49999999999997
 30
0.0
 11
30.25
 21
44.49999999999999
 31
0.0
  0
LINE
  5
192
330
3C8
100
AcDbEntity
  8
Contours
100
AcDbLine
 10
30.75000000000001
 20
47.49999999999998
 30
0.0
 11
30.75
 21
44.5
 31
0.0
  0
LINE
  5
193
330
3C8
100
AcDbEntity
  8
Contours
100
AcDbLine
 10
31.25000000000001
 20
47.49999999999997
 30
0.0
 11
31.25
 21
44.49999999999999
 31
0.0
  0
LINE
  5
194
330
3C8
100
AcDbEntity
  8
Contours
100
AcDbLine
 10
31.75000000000003
 20
47.49999999999996
 30
0.0
 11
31.75
 21
44.5
 31
0.0
  0
LINE
  5
195
330
3C8
100
AcDbEntity
  8
Contours
100
AcDbLine
 10
32.25000000000003
 20
47.49999999999996
 30
0.0
 11
32.25
 21
44.5
 31
0.0
  0
LINE
  5
196
330
3C8
100
AcDbEntity
  8
Contours
100
AcDbLine
 10
32.75
 20
47.49999999999999
 30
0.0
 11
32.75
 21
44.49999999999997
 31
0.0
  0
LINE
  5
197
330
3C8
100
AcDbEntity
  8
Contours
100
AcDbLine
 10
33.25
 20
47.49999999999999
 30
0.0
 11
33.25
 21
44.49999999999999
 31
0.0
  0
LINE
  5
198
330
3C8
100
AcDbEntity
  8
Contours
100
AcDbLine
 10
33.75
 20
47.49999999999999
 30
0.0
 11
33.75000000000001
 21
44.49999999999997
 31
0.0
  0
LINE
  5
199
330
3C8
100
AcDbEntity
  8
Contours
100
AcDbLine
 10
34.25
 20
47.49999999999998
 30
0.0
 11
34.25
 21
44.5
 31
0.0
  0
LINE
  5
19A
330
3C8
100
AcDbEntity
  8
Contours
100
AcDbLine
 10
34.75000000000001
 20
47.49999999999996
 30
0.0
 11
34.75
 21
44.49999999999998
 31
0.0
  0
LINE
  5
19B
330
3C8
100
AcDbEntity
  8
Contours
100
AcDbLine
 10
35.25
 20
47.49999999999999
 30
0.0
 11
35.25
 21
44.49999999999999
 31
0.0
  0
LINE
  5
19C
330
3C8
100
AcDbEntity
  8
Contours
100
AcDbLine
 10
35.75000000000001
 20
47.49999999999997
 30
0.0
 11
35.75
 21
44.5
 31
0.0
  0
LINE
  5
19D
330
3C8
100
AcDbEntity
  8
Contours
100
AcDbLine
 10
36.25000000000003
 20
47.49999999999996
 30
0.0
 11
36.25
 21
44.49999999999999
 31
0.0
  0
LINE
  5
19E
330
3C8
100
AcDbEntity
  8
Contours
100
AcDbLine
 10
36.75000000000001
 20
47.49999999999997
 30
0.0
 11
36.75
 21
44.49999999999999
 31
0.0
  0
LINE
  5
19F
330
3C8
100
AcDbEntity
  8
Contours
100
AcDbLine
 10
37.25000000000001
 20
47.49999999999996
 30
0.0
 11
37.25
 21
44.49999999999999
 31
0.0
  0
LINE
  5
1A0
330
3C8
100
AcDbEntity
  8
Contours
100
AcDbLine
 10
37.75
 20
47.5
 30
0.0
 11
37.75000000000001
 21
44.49999999999996
 31
0.0
  0
LINE
  5
1A1
330
3C8
100
AcDbEntity
  8
Contours
100
AcDbLine
 10
38.25
 20
47.5
 30
0.0
 11
38.25
 21
44.49999999999999
 31
0.0
  0
LINE
  5
1A2
330
3C8
100
AcDbEntity
  8
Contours
100
AcDbLine
 10
38.75
 20
47.49999999999997
 30
0.0
 11
38.75
 21
44.49999999999999
 31
0.0
  0
LINE
  5
1A3
330
3C8
100
AcDbEntity
  8
Contours
100
AcDbLine
 10
39.25
 20
47.49999999999999
 30
0.0
 11
39.25
 21
44.49999999999998
 31
0.0
  0
LINE
  5
1A4
330
3C8
100
AcDbEntity
  8
Contours
100
AcDbLine
 10
39.75
 20
47.49999999999999
 30
0.0
 11
39.75
 21
44.50000000000001
 31
0.0
  0
LINE
  5
1A5
330
3C8
100
AcDbEntity
  8
Contours
100
AcDbLine
 10
40.25
 20
47.49999999999999
 30
0.0
 11
40.25000000000001
 21
44.49999999999995
 31
0.0
  0
LINE
  5
1A6
330
3C8
100
AcDbEntity
  8
Contours
100
AcDbLine
 10
40.75
 20
47.49999999999998
 30
0.0
 11
40.75
 21
44.49999999999999
 31
0.0
  0
LINE
  5
1A7
330
3C8
100
AcDbEntity
  8
Contours
100
AcDbLine
 10
41.25
 20
47.5
 30
0.0
 11
41.25
 21
44.5
 31
0.0
  0
LINE
  5
1A8
330
3C8
100
AcDbEntity
  8
Contours
100
AcDbLine
 10
41.75
 20
47.5
 30
0.0
 11
41.75
 21
44.49999999999999
 31
0.0
  0
LINE
  5
1A9
330
3C8
100
AcDbEntity
  8
Contours
100
AcDbLine
 10
42.25
 20
47.49999999999999
 30
0.0
 11
42.25
 21
44.49999999999999
 31
0.0
  0
LINE
  5
1AA
330
3C8
100
AcDbEntity
  8
Contours
100
AcDbLine
 10
42.75
 20
47.5
 30
0.0
 11
42.75000000000001
 21
44.49999999999996
 31
0.0
  0
LINE
  5
1AB
330
3C8
100
AcDbEntity
  8
Contours
100
AcDbLine
 10
43.25000000000001
 20
47.49999999999997
 30
0.0
 11
43.25
 21
44.49999999999998
 31
0.0
  0
LINE
  5
1AC
330
3C8
100
AcDbEntity
  8
Contours
100
AcDbLine
 10
43.75
 20
47.5
 30
0.0
 11
43.75
 21
44.49999999999997
 31
0.0
  0
LINE
  5
1AD
330
3C8
100
AcDbEntity
  8
Contours
100
AcDbLine
 10
44.25
 20
47.5
 30
0.0
 11
44.25
 21
44.49999999999996
 31
0.0
  0
LINE
  5
1AE
330
3C8
100
AcDbEntity
  8
Contours
100
AcDbLine
 10
44.75
 20
47.50000000000001
 30
0.0
 11
44.75
 21
44.49999999999997
 31
0.0
  0
LINE
  5
1AF
330
3C8
100
AcDbEntity
  8
Contours
100
AcDbLine
 10
45.25
 20
47.49999999999999
 30
0.0
 11
45.25
 21
44.5
 31
0.0
  0
LINE
  5
1B0
330
3C8
100
AcDbEntity
  8
Contours
100
AcDbLine
 10
45.75
 20
47.49999999999999
 30
0.0
 11
45.75
 21
44.5
 31
0.0
  0
LINE
  5
1B1
330
3C8
100
AcDbEntity
  8
Contours
100
AcDbLine
 10
46.25
 20
47.49999999999999
 30
0.0
 11
46.25
 21
44.5
 31
0.0
  0
LINE
  5
1B2
330
3C8
100
AcDbEntity
  8
Contours
100
AcDbLine
 10
46.75
 20
47.5
 30
0.0
 11
46.75
 21
44.49999999999997
 31
0.0
  0
LINE
  5
1B3
330
3C8
100
AcDbEntity
  8
Contours
100
AcDbLine
 10
47.25
 20
47.49999999999999
 30
0.0
 11
47.25
 21
44.49999999999997
 31
0.0
  0
LINE
  5
1B4
330
3C8
100
AcDbEntity
  8
Contours
100
AcDbLine
 10
47.75
 20
47.49999999999999
 30
0.0
 11
47.75
 21
44.49999999999999
 31
0.0
  0
LINE
  5
1B5
330
3C8
100
AcDbEntity
  8
Contours
100
AcDbLine
 10
48.25
 20
47.49999999999997
 30
0.0
 11
48.25
 21
44.49999999999996
 31
0.0
  0
LINE
  5
1B6
330
3C8
100
AcDbEntity
  8
Contours
100
AcDbLine
 10
48.75
 20
47.49999999999999
 30
0.0
 11
48.75
 21
44.49999999999998
 31
0.0
  0
LINE
  5
1B7
330
3C8
100
AcDbEntity
  8
Contours
100
AcDbLine
 10
49.25
 20
47.49999999999998
 30
0.0
 11
49.25
 21
44.49999999999999
 31
0.0
  0
LINE
  5
1B8
330
3C8
100
AcDbEntity
  8
Contours
100
AcDbLine
 10
49.75
 20
47.49999999999999
 30
0.0
 11
49.75
 21
44.49999999999999
 31
0.0
  0
LINE
  5
1B9
330
3C8
100
AcDbEntity
  8
Contours
100
AcDbLine
 10
50.25
 20
47.49999999999999
 30
0.0
 11
50.25
 21
44.49999999999997
 31
0.0
  0
LINE
  5
1BA
330
3C8
100
AcDbEntity
  8
Contours
100
AcDbLine
 10
50.75
 20
47.49999999999996
 30
0.0
 11
50.75
 21
44.49999999999994
 31
0.0
  0
LINE
  5
1BB
330
3C8
100
AcDbEntity
  8
Contours
100
AcDbLine
 10
51.25
 20
47.49999999999999
 30
0.0
 11
51.25
 21
44.49999999999999
 31
0.0
  0
LINE
  5
1BC
330
3C8
100
AcDbEntity
  8
Contours
100
AcDbLine
 10
51.75
 20
47.49999999999996
 30
0.0
 11
51.75
 21
44.49999999999999
 31
0.0
  0
LINE
  5
1BD
330
3C8
100
AcDbEntity
  8
Contours
100
AcDbLine
 10
52.25
 20
47.49999999999997
 30
0.0
 11
52.25
 21
44.5
 31
0.0
  0
LINE
  5
1BE
330
3C8
100
AcDbEntity
  8
Contours
100
AcDbLine
 10
52.75
 20
47.49999999999996
 30
0.0
 11
52.75
 21
44.49999999999996
 31
0.0
  0
LINE
  5
1BF
330
3C8
100
AcDbEntity
  8
Contours
100
AcDbLine
 10
53.25
 20
47.49999999999999
 30
0.0
 11
53.25
 21
44.49999999999996
 31
0.0
  0
LINE
  5
1C0
330
3C8
100
AcDbEntity
  8
Contours
100
AcDbLine
 10
53.75
 20
47.49999999999997
 30
0.0
 11
53.75
 21
44.5
 31
0.0
  0
LINE
  5
1C1
330
3C8
100
AcDbEntity
  8
Contours
100
AcDbLine
 10
54.25000000000003
 20
47.49999999999995
 30
0.0
 11
54.25
 21
44.49999999999996
 31
0.0
  0
LINE
  5
1C2
330
3C8
100
AcDbEntity
  8
Contours
100
AcDbLine
 10
54.75000000000003
 20
47.49999999999995
 30
0.0
 11
54.75
 21
44.49999999999999
 31
0.0
  0
LINE
  5
1C3
330
3C8
100
AcDbEntity
  8
Contours
100
AcDbLine
 10
55.25
 20
47.49999999999999
 30
0.0
 11
55.25
 21
44.49999999999998
 31
0.0
  0
LINE
  5
1C4
330
3C8
100
AcDbEntity
  8
Contours
100
AcDbLine
 10
55.75
 20
47.5
 30
0.0
 11
55.75
 21
44.49999999999996
 31
0.0
  0
LINE
  5
1C5
330
3C8
100
AcDbEntity
  8
Contours
100
AcDbLine
 10
56.25
 20
47.49999999999994
 30
0.0
 11
56.25
 21
44.49999999999998
 31
0.0
  0
LINE
  5
1C6
330
3C8
100
AcDbEntity
  8
Contours
100
AcDbLine
 10
56.75
 20
47.49999999999999
 30
0.0
 11
56.75
 21
44.49999999999999
 31
0.0
  0
LINE
  5
1C7
330
3C8
100
AcDbEntity
  8
Contours
100
AcDbLine
 10
57.25
 20
47.49999999999998
 30
0.0
 11
57.25
 21
44.50000000000001
 31
0.0
  0
LINE
  5
1C8
330
3C8
100
AcDbEntity
  8
Contours
100
AcDbLine
 10
57.75
 20
47.49999999999997
 30
0.0
 11
57.75
 21
44.49999999999995
 31
0.0
  0
LINE
  5
1C9
330
3C8
100
AcDbEntity
  8
Contours
100
AcDbLine
 10
58.25000000000003
 20
47.49999999999993
 30
0.0
 11
58.25
 21
44.49999999999998
 31
0.0
  0
LINE
  5
1CA
330
3C8
100
AcDbEntity
  8
Contours
100
AcDbLine
 10
58.75
 20
47.49999999999996
 30
0.0
 11
58.75
 21
44.49999999999994
 31
0.0
  0
LINE
  5
1CB
330
3C8
100
AcDbEntity
  8
Contours
100
AcDbLine
 10
59.25
 20
47.49999999999999
 30
0.0
 11
59.25
 21
44.49999999999999
 31
0.0
  0
LINE
  5
1CC
330
3C8
100
AcDbEntity
  8
Contours
100
AcDbLine
 10
59.75
 20
47.49999999999998
 30
0.0
 11
59.75
 21
44.49999999999999
 31
0.0
  0
LINE
  5
1CD
330
3C8
100
AcDbEntity
  8
Contours
100
AcDbLine
 10
60.25
 20
47.49999999999997
 30
0.0
 11
60.25
 21
44.49999999999997
 31
0.0
  0
LINE
  5
1CE
330
3C8
100
AcDbEntity
  8
Contours
100
AcDbLine
 10
60.75
 20
47.49999999999996
 30
0.0
 11
60.75
 21
44.49999999999999
 31
0.0
  0
LINE
  5
1CF
330
3C8
100
AcDbEntity
  8
Contours
100
AcDbLine
 10
61.25
 20
47.50000000000001
 30
0.0
 11
61.25
 21
44.49999999999997
 31
0.0
  0
LINE
  5
1D0
330
3C8
100
AcDbEntity
  8
Contours
100
AcDbLine
 10
61.75
 20
47.49999999999997
 30
0.0
 11
61.75
 21
44.49999999999997
 31
0.0
  0
LINE
  5
1D1
330
3C8
100
AcDbEntity
  8
Contours
100
AcDbLine
 10
62.25
 20
47.49999999999999
 30
0.0
 11
62.25
 21
44.49999999999999
 31
0.0
  0
LINE
  5
1D2
330
3C8
100
AcDbEntity
  8
Contours
100
AcDbLine
 10
62.75
 20
47.49999999999998
 30
0.0
 11
62.75
 21
44.49999999999999
 31
0.0
  0
LINE
  5
1D3
330
3C8
100
AcDbEntity
  8
Contours
100
AcDbLine
 10
63.25
 20
47.50000000000003
 30
0.0
 11
63.25
 21
44.49999999999999
 31
0.0
  0
LINE
  5
1D4
330
3C8
100
AcDbEntity
  8
Contours
100
AcDbLine
 10
63.75
 20
47.50000000000001
 30
0.0
 11
63.75
 21
44.49999999999998
 31
0.0
  0
LINE
  5
1D5
330
3C8
100
AcDbEntity
  8
Contours
100
AcDbLine
 10
64.25
 20
47.49999999999999
 30
0.0
 11
64.25
 21
44.49999999999997
 31
0.0
  0
LINE
  5
1D6
330
3C8
100
AcDbEntity
  8
Contours
100
AcDbLine
 10
64.75
 20
47.49999999999999
 30
0.0
 11
64.75
 21
44.49999999999998
 31
0.0
  0
LINE
  5
1D7
330
3C8
100
AcDbEntity
  8
Contours
100
AcDbLine
 10
65.25
 20
47.50000000000006
 30
0.0
 11
65.25
 21
44.49999999999999
 31
0.0
  0
LINE
  5
1D8
330
3C8
100
AcDbEntity
  8
Contours
100
AcDbLine
 10
65.75
 20
47.49999999999997
 30
0.0
 11
65.75
 21
44.49999999999999
 31
0.0
  0
LINE
  5
1D9
330
3C8
100
AcDbEntity
  8
Contours
100
AcDbLine
 10
66.25
 20
47.49999999999996
 30
0.0
 11
66.25
 21
44.49999999999997
 31
0.0
  0
LINE
  5
1DA
330
3C8
100
AcDbEntity
  8
Contours
100
AcDbLine
 10
66.75
 20
47.5
 30
0.0
 11
66.75
 21
44.49999999999991
 31
0.0
  0
LINE
  5
1DB
330
3C8
100
AcDbEntity
  8
Contours
100
AcDbLine
 10
67.25
 20
47.50000000000006
 30
0.0
 11
67.25
 21
44.49999999999994
 31
0.0
  0
LINE
  5
1DC
330
3C8
100
AcDbEntity
  8
Contours
100
AcDbLine
 10
67.75
 20
47.5
 30
0.0
 11
67.75
 21
44.49999999999997
 31
0.0
  0
LINE
  5
1DD
330
3C8
100
AcDbEntity
  8
Contours
100
AcDbLine
 10
68.25
 20
47.49999999999996
 30
0.0
 11
68.25
 21
44.50000000000001
 31
0.0
  0
LINE
  5
1DE
330
3C8
100
AcDbEntity
  8
Contours
100
AcDbLine
 10
68.75
 20
47.50000000000001
 30
0.0
 11
68.75
 21
44.49999999999997
 31
0.0
  0
LINE
  5
1DF
330
3C8
100
AcDbEntity
  8
Contours
100
AcDbLine
 10
69.25
 20
47.49999999999999
 30
0.0
 11
69.25
 21
44.49999999999996
 31
0.0
  0
LINE
  5
1E0
330
3C8
100
AcDbEntity
  8
Contours
100
AcDbLine
 10
69.75
 20
47.5
 30
0.0
 11
69.75
 21
44.5
 31
0.0
  0
LINE
  5
1E1
330
3C8
100
AcDbEntity
  8
Contours
100
AcDbLine
 10
70.25
 20
47.49999999999997
 30
0.0
 11
70.25
 21
44.49999999999995
 31
0.0
  0
LINE
  5
1E2
330
3C8
100
AcDbEntity
  8
Contours
100
AcDbLine
 10
70.75
 20
47.49999999999999
 30
0.0
 11
70.75
 21
44.49999999999999
 31
0.0
  0
LINE
  5
1E3
330
3C8
100
AcDbEntity
  8
Contours
100
AcDbLine
 10
71.25
 20
47.49999999999997
 30
0.0
 11
71.25
 21
44.4999999999999
 31
0.0
  0
LINE
  5
1E4
330
3C8
100
AcDbEntity
  8
Contours
100
AcDbLine
 10
71.75
 20
47.49999999999999
 30
0.0
 11
71.75
 21
44.49999999999992
 31
0.0
  0
LINE
  5
1E5
330
3C8
100
AcDbEntity
  8
Contours
100
AcDbLine
 10
72.25
 20
47.49999999999997
 30
0.0
 11
72.25
 21
44.50000000000002
 31
0.0
  0
LINE
  5
1E6
330
3C8
100
AcDbEntity
  8
Contours
100
AcDbLine
 10
72.75
 20
47.49999999999991
 30
0.0
 11
72.75
 21
44.49999999999993
 31
0.0
  0
LINE
  5
1E7
330
3C8
100
AcDbEntity
  8
Contours
100
AcDbLine
 10
73.25
 20
47.49999999999996
 30
0.0
 11
73.25
 21
44.49999999999994
 31
0.0
  0
LINE
  5
1E8
330
3C8
100
AcDbEntity
  8
Contours
100
AcDbLine
 10
73.75
 20
47.50000000000001
 30
0.0
 11
73.75
 21
44.50000000000004
 31
0.0
  0
LINE
  5
1E9
330
3C8
100
AcDbEntity
  8
Contours
100
AcDbLine
 10
74.25
 20
47.49999999999999
 30
0.0
 11
74.25
 21
44.49999999999996
 31
0.0
  0
LINE
  5
1EA
330
3C8
100
AcDbEntity
  8
Contours
100
AcDbLine
 10
74.75
 20
47.5
 30
0.0
 11
74.75
 21
44.49999999999993
 31
0.0
  0
LINE
  5
1EB
330
3C8
100
AcDbEntity
  8
Contours
100
AcDbLine
 10
75.25
 20
47.50000000000003
 30
0.0
 11
75.25
 21
44.49999999999996
 31
0.0
  0
LINE
  5
1EC
330
3C8
100
AcDbEntity
  8
Contours
100
AcDbLine
 10
75.75
 20
47.49999999999997
 30
0.0
 11
75.75
 21
44.5
 31
0.0
  0
LINE
  5
1ED
330
3C8
100
AcDbEntity
  8
Contours
100
AcDbLine
 10
76.25
 20
47.49999999999994
 30
0.0
 11
76.25
 21
44.50000000000004
 31
0.0
  0
LINE
  5
1EE
330
3C8
100
AcDbEntity
  8
Contours
100
AcDbLine
 10
76.75
 20
47.49999999999997
 30
0.0
 11
76.75
 21
44.49999999999996
 31
0.0
  0
LINE
  5
1EF
330
3C8
100
AcDbEntity
  8
Contours
100
AcDbLine
 10
77.25
 20
47.49999999999999
 30
0.0
 11
77.25
 21
44.49999999999994
 31
0.0
  0
LINE
  5
1F0
330
3C8
100
AcDbEntity
  8
Contours
100
AcDbLine
 10
77.75
 20
47.49999999999993
 30
0.0
 11
77.75
 21
44.49999999999998
 31
0.0
  0
LINE
  5
1F1
330
3C8
100
AcDbEntity
  8
Contours
100
AcDbLine
 10
78.25
 20
47.49999999999998
 30
0.0
 11
78.25
 21
44.49999999999993
 31
0.0
  0
LINE
  5
1F2
330
3C8
100
AcDbEntity
  8
Contours
100
AcDbLine
 10
78.75
 20
47.50000000000001
 30
0.0
 11
78.75
 21
44.49999999999997
 31
0.0
  0
LINE
  5
1F3
330
3C8
100
AcDbEntity
  8
Contours
100
AcDbLine
 10
79.25
 20
47.49999999999994
 30
0.0
 11
79.25
 21
44.49999999999997
 31
0.0
  0
LINE
  5
1F4
330
3C8
100
AcDbEntity
  8
Contours
100
AcDbLine
 10
79.75
 20
47.50000000000001
 30
0.0
 11
79.75
 21
44.49999999999995
 31
0.0
  0
MTEXT
  5
1F5
330
3C8
100
AcDbEntity
  8
textes
100
AcDbMText
 10
12.18560000000042
 20
27.44320000000094
 30
0.0
 40
4.0
 41
100.0
 46
0.0
 71
     1
 72
     1
  1
String\~Action\~Gauge
  7
textstyle56
 73
     1
 44
1.0
  0
MTEXT
  5
1F6
330
3C8
100
AcDbEntity
  8
textes
100
AcDbMText
 10
21.19680000000073
 20
21.50400000000074
 30
0.0
 40
4.0
 41
100.0
 46
0.0
 71
     1
 72
     1
  1
Jauge\~d'action
  7
textstyle57
 73
     1
 44
1.0
  0
MTEXT
  5
1F7
330
3C8
100
AcDbEntity
  8
textes
100
AcDbMText
 10
72.60160000000249
 20
19.25120000000066
 30
0.0
 40
1.0
 41
100.0
 46
0.0
 71
     1
 72
     1
  1
www.labellenote.fr
  7
textstyle58
 11
6.123233995736766E-17
 21
1.0
 31
0.0
 73
     1
 44
1.0
  0
LINE
  5
1F8
330
3C8
100
AcDbEntity
  8
Contours
100
AcDbLine
 10
-19.99999999999999
 20
0.0
 30
0.0
 11
-100.0
 21
0.0000000000000213
 31
0.0
  0
LINE
  5
1F9
330
3C8
100
AcDbEntity
  8
Contours
100
AcDbLine
 10
-100.0
 20
0.0000000000000213
 30
0.0
 11
-100.0
 21
50.00000000000004
 31
0.0
  0
LINE
  5
1FA
330
3C8
100
AcDbEntity
  8
Contours
100
AcDbLine
 10
-20.0
 20
50.00000000000001
 30
0.0
 11
-100.0
 21
50.00000000000024
 31
0.0
  0
LINE
  5
1FB
330
3C8
100
AcDbEntity
  8
Contours
100
AcDbLine
 10
-20.0
 20
50.00000000000001
 30
0.0
 11
-19.99999999999999
 21
0.0
 31
0.0
  0
LINE
  5
1FC
330
3C8
100
AcDbEntity
  8
graduations
100
AcDbLine
 10
-25.00000000000002
 20
0.2500000000000071
 30
0.0
 11
-30.00000000000001
 21
0.2500000000000071
 31
0.0
  0
LINE
  5
1FD
330
3C8
100
AcDbEntity
  8
graduations
100
AcDbLine
 10
-25.00000000000002
 20
0.2500000000000071
 30
0.0
 11
-25.00000000000002
 21
0.2500000000000071
 31
0.0
  0
MTEXT
  5
1FE
330
3C8
100
AcDbEntity
  8
graduations
100
AcDbMText
 10
-25.99999999999998
 20
2.224999999999994
 30
0.0
 40
1.0
 41
100.0
 46
0.0
 71
     3
 72
     1
  1
0.25
  7
textstyle59
 73
     1
 44
1.0
  0
LINE
  5
1FF
330
3C8
100
AcDbEntity
  8
graduations
100
AcDbLine
 10
-31.0
 20
0.5
 30
0.0
 11
-36.00000000000001
 21
0.5000000000000071
 31
0.0
  0
LINE
  5
200
330
3C8
100
AcDbEntity
  8
graduations
100
AcDbLine
 10
-37.00000000000001
 20
0.7500000000000071
 30
0.0
 11
-41.99999999999999
 21
0.7499999999999858
 31
0.0
  0
LINE
  5
201
330
3C8
100
AcDbEntity
  8
graduations
100
AcDbLine
 10
-43.0
 20
1.0
 30
0.0
 11
-48.0
 21
1.0
 31
0.0
  0
LINE
  5
202
330
3C8
100
AcDbEntity
  8
graduations
100
AcDbLine
 10
-48.99999999999999
 20
1.25
 30
0.0
 11
-53.99999999999999
 21
1.249999999999986
 31
0.0
  0
LINE
  5
203
330
3C8
100
AcDbEntity
  8
graduations
100
AcDbLine
 10
-55.0
 20
1.5
 30
0.0
 11
-60.00000000000002
 21
1.500000000000021
 31
0.0
  0
LINE
  5
204
330
3C8
100
AcDbEntity
  8
graduations
100
AcDbLine
 10
-61.00000000000001
 20
1.750000000000014
 30
0.0
 11
-66.0
 21
1.750000000000014
 31
0.0
  0
LINE
  5
205
330
3C8
100
AcDbEntity
  8
graduations
100
AcDbLine
 10
-67.00000000000003
 20
2.000000000000014
 30
0.0
 11
-72.0
 21
2.0
 31
0.0
  0
LINE
  5
206
330
3C8
100
AcDbEntity
  8
graduations
100
AcDbLine
 10
-73.00000000000003
 20
2.250000000000021
 30
0.0
 11
-78.0
 21
2.25
 31
0.0
  0
LINE
  5
207
330
3C8
100
AcDbEntity
  8
graduations
100
AcDbLine
 10
-79.0
 20
2.500000000000007
 30
0.0
 11
-84.00000000000003
 21
2.500000000000021
 31
0.0
  0
LINE
  5
208
330
3C8
100
AcDbEntity
  8
graduations
100
AcDbLine
 10
-85.0
 20
2.750000000000007
 30
0.0
 11
-89.99999999999999
 21
2.749999999999972
 31
0.0
  0
LINE
  5
209
330
3C8
100
AcDbEntity
  8
graduations
100
AcDbLine
 10
-91.0
 20
3.000000000000007
 30
0.0
 11
-96.00000000000003
 21
3.000000000000043
 31
0.0
  0
MTEXT
  5
20A
330
3C8
100
AcDbEntity
  8
graduations
100
AcDbMText
 10
-31.99999999999999
 20
2.474999999999994
 30
0.0
 40
1.0
 41
100.0
 46
0.0
 71
     3
 72
     1
  1
0.50
  7
textstyle60
 73
     1
 44
1.0
  0
MTEXT
  5
20B
330
3C8
100
AcDbEntity
  8
graduations
100
AcDbMText
 10
-38.0
 20
2.725000000000001
 30
0.0
 40
1.0
 41
100.0
 46
0.0
 71
     3
 72
     1
  1
0.75
  7
textstyle61
 73
     1
 44
1.0
  0
MTEXT
  5
20C
330
3C8
100
AcDbEntity
  8
graduations
100
AcDbMText
 10
-44.00000000000003
 20
2.97500000000003
 30
0.0
 40
1.0
 41
100.0
 46
0.0
 71
     3
 72
     1
  1
1.00
  7
textstyle62
 73
     1
 44
1.0
  0
MTEXT
  5
20D
330
3C8
100
AcDbEntity
  8
graduations
100
AcDbMText
 10
-50.00000000000002
 20
3.22500000000003
 30
0.0
 40
1.0
 41
100.0
 46
0.0
 71
     3
 72
     1
  1
1.25
  7
textstyle63
 73
     1
 44
1.0
  0
MTEXT
  5
20E
330
3C8
100
AcDbEntity
  8
graduations
100
AcDbMText
 10
-55.99999999999999
 20
3.475000000000001
 30
0.0
 40
1.0
 41
100.0
 46
0.0
 71
     3
 72
     1
  1
1.50
  7
textstyle64
 73
     1
 44
1.0
  0
MTEXT
  5
20F
330
3C8
100
AcDbEntity
  8
graduations
100
AcDbMText
 10
-62.00000000000002
 20
3.725000000000037
 30
0.0
 40
1.0
 41
100.0
 46
0.0
 71
     3
 72
     1
  1
1.75
  7
textstyle65
 73
     1
 44
1.0
  0
MTEXT
  5
210
330
3C8
100
AcDbEntity
  8
graduations
100
AcDbMText
 10
-68.0
 20
3.975000000000001
 30
0.0
 40
1.0
 41
100.0
 46
0.0
 71
     3
 72
     1
  1
2.00
  7
textstyle66
 73
     1
 44
1.0
  0
MTEXT
  5
211
330
3C8
100
AcDbEntity
  8
graduations
100
AcDbMText
 10
-74.0
 20
4.224999999999994
 30
0.0
 40
1.0
 41
100.0
 46
0.0
 71
     3
 72
     1
  1
2.25
  7
textstyle67
 73
     1
 44
1.0
  0
MTEXT
  5
212
330
3C8
100
AcDbEntity
  8
graduations
100
AcDbMText
 10
-80.0
 20
4.47499999999998
 30
0.0
 40
1.0
 41
100.0
 46
0.0
 71
     3
 72
     1
  1
2.50
  7
textstyle68
 73
     1
 44
1.0
  0
MTEXT
  5
213
330
3C8
100
AcDbEntity
  8
graduations
100
AcDbMText
 10
-86.00000000000001
 20
4.725000000000016
 30
0.0
 40
1.0
 41
100.0
 46
0.0
 71
     3
 72
     1
  1
2.75
  7
textstyle69
 73
     1
 44
1.0
  0
MTEXT
  5
214
330
3C8
100
AcDbEntity
  8
graduations
100
AcDbMText
 10
-91.99999999999999
 20
4.974999999999973
 30
0.0
 40
1.0
 41
100.0
 46
0.0
 71
     3
 72
     1
  1
3.00
  7
textstyle70
 73
     1
 44
1.0
  0
LINE
  5
215
330
3C8
100
AcDbEntity
  8
graduations
100
AcDbLine
 10
-25.00000000000001
 20
3.25
 30
0.0
 11
-29.99999999999999
 21
3.25
 31
0.0
  0
LINE
  5
216
330
3C8
100
AcDbEntity
  8
graduations
100
AcDbLine
 10
-31.00000000000001
 20
3.500000000000007
 30
0.0
 11
-36.0
 21
3.5
 31
0.0
  0
LINE
  5
217
330
3C8
100
AcDbEntity
  8
graduations
100
AcDbLine
 10
-37.00000000000001
 20
3.750000000000014
 30
0.0
 11
-42.00000000000001
 21
3.75
 31
0.0
  0
LINE
  5
218
330
3C8
100
AcDbEntity
  8
graduations
100
AcDbLine
 10
-42.99999999999999
 20
3.999999999999993
 30
0.0
 11
-47.99999999999999
 21
3.999999999999993
 31
0.0
  0
LINE
  5
219
330
3C8
100
AcDbEntity
  8
graduations
100
AcDbLine
 10
-49.00000000000001
 20
4.250000000000007
 30
0.0
 11
-54.00000000000001
 21
4.250000000000014
 31
0.0
  0
MTEXT
  5
21A
330
3C8
100
AcDbEntity
  8
graduations
100
AcDbMText
 10
-26.00000000000002
 20
5.225000000000009
 30
0.0
 40
1.0
 41
100.0
 46
0.0
 71
     3
 72
     1
  1
3.25
  7
textstyle71
 73
     1
 44
1.0
  0
MTEXT
  5
21B
330
3C8
100
AcDbEntity
  8
graduations
100
AcDbMText
 10
-32.00000000000001
 20
5.475000000000009
 30
0.0
 40
1.0
 41
100.0
 46
0.0
 71
     3
 72
     1
  1
3.50
  7
textstyle72
 73
     1
 44
1.0
  0
MTEXT
  5
21C
330
3C8
100
AcDbEntity
  8
graduations
100
AcDbMText
 10
-38.00000000000003
 20
5.725000000000023
 30
0.0
 40
1.0
 41
100.0
 46
0.0
 71
     3
 72
     1
  1
3.75
  7
textstyle73
 73
     1
 44
1.0
  0
MTEXT
  5
21D
330
3C8
100
AcDbEntity
  8
graduations
100
AcDbMText
 10
-44.0
 20
5.974999999999994
 30
0.0
 40
1.0
 41
100.0
 46
0.0
 71
     3
 72
     1
  1
4.00
  7
textstyle74
 73
     1
 44
1.0
  0
MTEXT
  5
21E
330
3C8
100
AcDbEntity
  8
graduations
100
AcDbMText
 10
-50.00000000000001
 20
6.225000000000009
 30
0.0
 40
1.0
 41
100.0
 46
0.0
 71
     3
 72
     1
  1
4.25
  7
textstyle75
 73
     1
 44
1.0
  0
LINE
  5
21F
330
3C8
100
AcDbEntity
  8
graduations
100
AcDbLine
 10
-54.99999999999999
 20
4.499999999999986
 30
0.0
 11
-60.0
 21
4.500000000000014
 31
0.0
  0
LINE
  5
220
330
3C8
100
AcDbEntity
  8
graduations
100
AcDbLine
 10
-60.99999999999999
 20
4.750000000000007
 30
0.0
 11
-66.0
 21
4.75
 31
0.0
  0
LINE
  5
221
330
3C8
100
AcDbEntity
  8
graduations
100
AcDbLine
 10
-67.0
 20
5.000000000000007
 30
0.0
 11
-72.0
 21
5.0
 31
0.0
  0
LINE
  5
222
330
3C8
100
AcDbEntity
  8
graduations
100
AcDbLine
 10
-73.00000000000001
 20
5.250000000000014
 30
0.0
 11
-77.99999999999999
 21
5.249999999999964
 31
0.0
  0
LINE
  5
223
330
3C8
100
AcDbEntity
  8
graduations
100
AcDbLine
 10
-79.00000000000001
 20
5.500000000000021
 30
0.0
 11
-84.0
 21
5.499999999999979
 31
0.0
  0
LINE
  5
224
330
3C8
100
AcDbEntity
  8
graduations
100
AcDbLine
 10
-85.00000000000001
 20
5.750000000000007
 30
0.0
 11
-90.0
 21
5.750000000000007
 31
0.0
  0
LINE
  5
225
330
3C8
100
AcDbEntity
  8
graduations
100
AcDbLine
 10
-91.00000000000001
 20
6.000000000000014
 30
0.0
 11
-95.99999999999999
 21
5.999999999999986
 31
0.0
  0
MTEXT
  5
226
330
3C8
100
AcDbEntity
  8
graduations
100
AcDbMText
 10
-56.00000000000002
 20
6.475000000000023
 30
0.0
 40
1.0
 41
100.0
 46
0.0
 71
     3
 72
     1
  1
4.50
  7
textstyle76
 73
     1
 44
1.0
  0
MTEXT
  5
227
330
3C8
100
AcDbEntity
  8
graduations
100
AcDbMText
 10
-62.00000000000001
 20
6.725000000000009
 30
0.0
 40
1.0
 41
100.0
 46
0.0
 71
     3
 72
     1
  1
4.75\P
  7
textstyle77
 73
     1
 44
1.0
  0
MTEXT
  5
228
330
3C8
100
AcDbEntity
  8
graduations
100
AcDbMText
 10
-68.00000000000001
 20
6.975000000000023
 30
0.0
 40
1.0
 41
100.0
 46
0.0
 71
     3
 72
     1
  1
5.00
  7
textstyle78
 73
     1
 44
1.0
  0
MTEXT
  5
229
330
3C8
100
AcDbEntity
  8
graduations
100
AcDbMText
 10
-74.00000000000003
 20
7.225000000000044
 30
0.0
 40
1.0
 41
100.0
 46
0.0
 71
     3
 72
     1
  1
5.25
  7
textstyle79
 73
     1
 44
1.0
  0
MTEXT
  5
22A
330
3C8
100
AcDbEntity
  8
graduations
100
AcDbMText
 10
-79.99999999999999
 20
7.474999999999973
 30
0.0
 40
1.0
 41
100.0
 46
0.0
 71
     3
 72
     1
  1
5.50
  7
textstyle80
 73
     1
 44
1.0
  0
MTEXT
  5
22B
330
3C8
100
AcDbEntity
  8
graduations
100
AcDbMText
 10
-86.00000000000001
 20
7.725000000000001
 30
0.0
 40
1.0
 41
100.0
 46
0.0
 71
     3
 72
     1
  1
5.75
  7
textstyle81
 73
     1
 44
1.0
  0
MTEXT
  5
22C
330
3C8
100
AcDbEntity
  8
graduations
100
AcDbMText
 10
-91.99999999999999
 20
7.975000000000001
 30
0.0
 40
1.0
 41
100.0
 46
0.0
 71
     3
 72
     1
  1
6.00
  7
textstyle82
 73
     1
 44
1.0
  0
LINE
  5
22D
330
3C8
100
AcDbEntity
  8
graduations
100
AcDbLine
 10
-25.00000000000001
 20
6.250000000000007
 30
0.0
 11
-30.00000000000001
 21
6.25
 31
0.0
  0
LINE
  5
22E
330
3C8
100
AcDbEntity
  8
graduations
100
AcDbLine
 10
-25.00000000000001
 20
6.250000000000007
 30
0.0
 11
-25.00000000000001
 21
6.250000000000007
 31
0.0
  0
LINE
  5
22F
330
3C8
100
AcDbEntity
  8
graduations
100
AcDbLine
 10
-30.99999999999999
 20
6.499999999999993
 30
0.0
 11
-35.99999999999999
 21
6.499999999999993
 31
0.0
  0
LINE
  5
230
330
3C8
100
AcDbEntity
  8
graduations
100
AcDbLine
 10
-37.0
 20
6.75
 30
0.0
 11
-41.99999999999999
 21
6.75
 31
0.0
  0
LINE
  5
231
330
3C8
100
AcDbEntity
  8
graduations
100
AcDbLine
 10
-43.0
 20
7.0
 30
0.0
 11
-47.99999999999999
 21
6.999999999999993
 31
0.0
  0
LINE
  5
232
330
3C8
100
AcDbEntity
  8
graduations
100
AcDbLine
 10
-48.99999999999999
 20
7.249999999999993
 30
0.0
 11
-54.00000000000001
 21
7.250000000000007
 31
0.0
  0
LINE
  5
233
330
3C8
100
AcDbEntity
  8
graduations
100
AcDbLine
 10
-55.00000000000003
 20
7.500000000000028
 30
0.0
 11
-60.00000000000002
 21
7.500000000000028
 31
0.0
  0
LINE
  5
234
330
3C8
100
AcDbEntity
  8
graduations
100
AcDbLine
 10
-61.00000000000002
 20
7.750000000000021
 30
0.0
 11
-66.0
 21
7.749999999999993
 31
0.0
  0
LINE
  5
235
330
3C8
100
AcDbEntity
  8
graduations
100
AcDbLine
 10
-67.0
 20
8.0
 30
0.0
 11
-71.99999999999997
 21
7.999999999999972
 31
0.0
  0
LINE
  5
236
330
3C8
100
AcDbEntity
  8
graduations
100
AcDbLine
 10
-73.0
 20
8.25
 30
0.0
 11
-78.0
 21
8.249999999999986
 31
0.0
  0
LINE
  5
237
330
3C8
100
AcDbEntity
  8
graduations
100
AcDbLine
 10
-78.99999999999999
 20
8.499999999999993
 30
0.0
 11
-84.00000000000001
 21
8.500000000000021
 31
0.0
  0
LINE
  5
238
330
3C8
100
AcDbEntity
  8
graduations
100
AcDbLine
 10
-85.00000000000001
 20
8.750000000000036
 30
0.0
 11
-90.00000000000001
 21
8.750000000000028
 31
0.0
  0
LINE
  5
239
330
3C8
100
AcDbEntity
  8
graduations
100
AcDbLine
 10
-91.0
 20
8.999999999999993
 30
0.0
 11
-95.99999999999999
 21
8.999999999999986
 31
0.0
  0
LINE
  5
23A
330
3C8
100
AcDbEntity
  8
graduations
100
AcDbLine
 10
-25.0
 20
9.25
 30
0.0
 11
-29.99999999999999
 21
9.25
 31
0.0
  0
LINE
  5
23B
330
3C8
100
AcDbEntity
  8
graduations
100
AcDbLine
 10
-31.0
 20
9.5
 30
0.0
 11
-36.00000000000001
 21
9.500000000000007
 31
0.0
  0
LINE
  5
23C
330
3C8
100
AcDbEntity
  8
graduations
100
AcDbLine
 10
-37.0
 20
9.75
 30
0.0
 11
-42.0
 21
9.75
 31
0.0
  0
LINE
  5
23D
330
3C8
100
AcDbEntity
  8
graduations
100
AcDbLine
 10
-43.00000000000001
 20
10.00000000000001
 30
0.0
 11
-48.00000000000001
 21
10.00000000000001
 31
0.0
  0
LINE
  5
23E
330
3C8
100
AcDbEntity
  8
graduations
100
AcDbLine
 10
-48.99999999999999
 20
10.24999999999999
 30
0.0
 11
-54.00000000000001
 21
10.25000000000001
 31
0.0
  0
LINE
  5
23F
330
3C8
100
AcDbEntity
  8
graduations
100
AcDbLine
 10
-55.0
 20
10.50000000000001
 30
0.0
 11
-60.0
 21
10.50000000000001
 31
0.0
  0
LINE
  5
240
330
3C8
100
AcDbEntity
  8
graduations
100
AcDbLine
 10
-61.00000000000001
 20
10.75000000000001
 30
0.0
 11
-66.0
 21
10.74999999999999
 31
0.0
  0
LINE
  5
241
330
3C8
100
AcDbEntity
  8
graduations
100
AcDbLine
 10
-67.0
 20
11.00000000000001
 30
0.0
 11
-72.00000000000001
 21
11.00000000000002
 31
0.0
  0
LINE
  5
242
330
3C8
100
AcDbEntity
  8
graduations
100
AcDbLine
 10
-73.0
 20
11.24999999999999
 30
0.0
 11
-78.0
 21
11.24999999999999
 31
0.0
  0
LINE
  5
243
330
3C8
100
AcDbEntity
  8
graduations
100
AcDbLine
 10
-79.0
 20
11.49999999999999
 30
0.0
 11
-84.00000000000001
 21
11.50000000000004
 31
0.0
  0
LINE
  5
244
330
3C8
100
AcDbEntity
  8
graduations
100
AcDbLine
 10
-85.0
 20
11.75000000000001
 30
0.0
 11
-90.0
 21
11.75000000000001
 31
0.0
  0
LINE
  5
245
330
3C8
100
AcDbEntity
  8
graduations
100
AcDbLine
 10
-91.00000000000001
 20
12.00000000000002
 30
0.0
 11
-95.99999999999999
 21
11.99999999999996
 31
0.0
  0
MTEXT
  5
246
330
3C8
100
AcDbEntity
  8
graduations
100
AcDbMText
 10
-26.0
 20
8.225000000000001
 30
0.0
 40
1.0
 41
100.0
 46
0.0
 71
     3
 72
     1
  1
6.25
  7
textstyle83
 73
     1
 44
1.0
  0
MTEXT
  5
247
330
3C8
100
AcDbEntity
  8
graduations
100
AcDbMText
 10
-32.0
 20
8.475000000000009
 30
0.0
 40
1.0
 41
100.0
 46
0.0
 71
     3
 72
     1
  1
6.50
  7
textstyle84
 73
     1
 44
1.0
  0
MTEXT
  5
248
330
3C8
100
AcDbEntity
  8
graduations
100
AcDbMText
 10
-38.00000000000001
 20
8.725000000000016
 30
0.0
 40
1.0
 41
100.0
 46
0.0
 71
     3
 72
     1
  1
6.75
  7
textstyle85
 73
     1
 44
1.0
  0
MTEXT
  5
249
330
3C8
100
AcDbEntity
  8
graduations
100
AcDbMText
 10
-26.0
 20
11.225
 30
0.0
 40
1.0
 41
100.0
 46
0.0
 71
     3
 72
     1
  1
9.25
  7
textstyle86
 73
     1
 44
1.0
  0
MTEXT
  5
24A
330
3C8
100
AcDbEntity
  8
graduations
100
AcDbMText
 10
-32.00000000000001
 20
11.47500000000001
 30
0.0
 40
1.0
 41
100.0
 46
0.0
 71
     3
 72
     1
  1
9.50
  7
textstyle87
 73
     1
 44
1.0
  0
MTEXT
  5
24B
330
3C8
100
AcDbEntity
  8
graduations
100
AcDbMText
 10
-37.99999999999999
 20
11.72499999999999
 30
0.0
 40
1.0
 41
100.0
 46
0.0
 71
     3
 72
     1
  1
9.75
  7
textstyle88
 73
     1
 44
1.0
  0
MTEXT
  5
24C
330
3C8
100
AcDbEntity
  8
graduations
100
AcDbMText
 10
-44.00000000000001
 20
8.975000000000023
 30
0.0
 40
1.0
 41
100.0
 46
0.0
 71
     3
 72
     1
  1
7.00
  7
textstyle89
 73
     1
 44
1.0
  0
MTEXT
  5
24D
330
3C8
100
AcDbEntity
  8
graduations
100
AcDbMText
 10
-44.00000000000001
 20
11.97500000000002
 30
0.0
 40
1.0
 41
100.0
 46
0.0
 71
     3
 72
     1
  1
10.00
  7
textstyle90
 73
     1
 44
1.0
  0
MTEXT
  5
24E
330
3C8
100
AcDbEntity
  8
graduations
100
AcDbMText
 10
-50.0
 20
9.225000000000001
 30
0.0
 40
1.0
 41
100.0
 46
0.0
 71
     3
 72
     1
  1
7.25
  7
textstyle91
 73
     1
 44
1.0
  0
MTEXT
  5
24F
330
3C8
100
AcDbEntity
  8
graduations
100
AcDbMText
 10
-50.00000000000001
 20
12.22500000000002
 30
0.0
 40
1.0
 41
100.0
 46
0.0
 71
     3
 72
     1
  1
10.25
  7
textstyle92
 73
     1
 44
1.0
  0
MTEXT
  5
250
330
3C8
100
AcDbEntity
  8
graduations
100
AcDbMText
 10
-56.00000000000001
 20
9.475000000000001
 30
0.0
 40
1.0
 41
100.0
 46
0.0
 71
     3
 72
     1
  1
7.50
  7
textstyle93
 73
     1
 44
1.0
  0
MTEXT
  5
251
330
3C8
100
AcDbEntity
  8
graduations
100
AcDbMText
 10
-56.00000000000002
 20
12.47500000000002
 30
0.0
 40
1.0
 41
100.0
 46
0.0
 71
     3
 72
     1
  1
10.50
  7
textstyle94
 73
     1
 44
1.0
  0
MTEXT
  5
252
330
3C8
100
AcDbEntity
  8
graduations
100
AcDbMText
 10
-62.00000000000001
 20
9.725000000000016
 30
0.0
 40
1.0
 41
100.0
 46
0.0
 71
     3
 72
     1
  1
7.75
  7
textstyle95
 73
     1
 44
1.0
  0
MTEXT
  5
253
330
3C8
100
AcDbEntity
  8
graduations
100
AcDbMText
 10
-61.99999999999999
 20
12.72499999999999
 30
0.0
 40
1.0
 41
100.0
 46
0.0
 71
     3
 72
     1
  1
10.75
  7
textstyle96
 73
     1
 44
1.0
  0
MTEXT
  5
254
330
3C8
100
AcDbEntity
  8
graduations
100
AcDbMText
 10
-68.00000000000003
 20
9.975000000000037
 30
0.0
 40
1.0
 41
100.0
 46
0.0
 71
     3
 72
     1
  1
8.00
  7
textstyle97
 73
     1
 44
1.0
  0
MTEXT
  5
255
330
3C8
100
AcDbEntity
  8
graduations
100
AcDbMText
 10
-68.0
 20
12.97499999999998
 30
0.0
 40
1.0
 41
100.0
 46
0.0
 71
     3
 72
     1
  1
11.00
  7
textstyle98
 73
     1
 44
1.0
  0
MTEXT
  5
256
330
3C8
100
AcDbEntity
  8
graduations
100
AcDbMText
 10
-74.0
 20
10.22500000000001
 30
0.0
 40
1.0
 41
100.0
 46
0.0
 71
     3
 72
     1
  1
8.25
  7
textstyle99
 73
     1
 44
1.0
  0
MTEXT
  5
257
330
3C8
100
AcDbEntity
  8
graduations
100
AcDbMText
 10
-74.00000000000001
 20
13.22500000000004
 30
0.0
 40
1.0
 41
100.0
 46
0.0
 71
     3
 72
     1
  1
11.25
  7
textstyle100
 73
     1
 44
1.0
  0
MTEXT
  5
258
330
3C8
100
AcDbEntity
  8
graduations
100
AcDbMText
 10
-80.0
 20
10.47499999999999
 30
0.0
 40
1.0
 41
100.0
 46
0.0
 71
     3
 72
     1
  1
8.50
  7
textstyle101
 73
     1
 44
1.0
  0
MTEXT
  5
259
330
3C8
100
AcDbEntity
  8
graduations
100
AcDbMText
 10
-80.00000000000001
 20
13.47500000000004
 30
0.0
 40
1.0
 41
100.0
 46
0.0
 71
     3
 72
     1
  1
11.50
  7
textstyle102
 73
     1
 44
1.0
  0
MTEXT
  5
25A
330
3C8
100
AcDbEntity
  8
graduations
100
AcDbMText
 10
-85.99999999999999
 20
10.72499999999999
 30
0.0
 40
1.0
 41
100.0
 46
0.0
 71
     3
 72
     1
  1
8.75
  7
textstyle103
 73
     1
 44
1.0
  0
MTEXT
  5
25B
330
3C8
100
AcDbEntity
  8
graduations
100
AcDbMText
 10
-85.99999999999999
 20
13.72499999999998
 30
0.0
 40
1.0
 41
100.0
 46
0.0
 71
     3
 72
     1
  1
11.75
  7
textstyle104
 73
     1
 44
1.0
  0
MTEXT
  5
25C
330
3C8
100
AcDbEntity
  8
graduations
100
AcDbMText
 10
-92.0
 20
10.97500000000002
 30
0.0
 40
1.0
 41
100.0
 46
0.0
 71
     3
 72
     1
  1
9.00
  7
textstyle105
 73
     1
 44
1.0
  0
MTEXT
  5
25D
330
3C8
100
AcDbEntity
  8
graduations
100
AcDbMText
 10
-91.99999999999999
 20
13.97499999999999
 30
0.0
 40
1.0
 41
100.0
 46
0.0
 71
     3
 72
     1
  1
12.00
  7
textstyle106
 73
     1
 44
1.0
  0
LINE
  5
25E
330
3C8
100
AcDbEntity
  8
graduations
100
AcDbLine
 10
-21.0
 20
50.00000000000001
 30
0.0
 11
-21.00000000000001
 21
42.00000000000005
 31
0.0
  0
LINE
  5
25F
330
3C8
100
AcDbEntity
  8
graduations
100
AcDbLine
 10
-22.0
 20
50.00000000000001
 30
0.0
 11
-22.00000000000001
 21
41.99999999999996
 31
0.0
  0
LINE
  5
260
330
3C8
100
AcDbEntity
  8
graduations
100
AcDbLine
 10
-22.99999999999999
 20
50.00000000000001
 30
0.0
 11
-23.00000000000001
 21
42.00000000000003
 31
0.0
  0
LINE
  5
261
330
3C8
100
AcDbEntity
  8
graduations
  6
Continuous
370
    20
100
AcDbLine
 10
-25.0
 20
50.00000000000001
 30
0.0
 11
-25.0
 21
40.00000000000008
 31
0.0
  0
LINE
  5
262
330
3C8
100
AcDbEntity
  8
graduations
100
AcDbLine
 10
-24.0
 20
50.00000000000001
 30
0.0
 11
-24.00000000000001
 21
42.00000000000004
 31
0.0
  0
LINE
  5
263
330
3C8
100
AcDbEntity
  8
graduations
100
AcDbLine
 10
-25.99999999999999
 20
50.00000000000001
 30
0.0
 11
-26.00000000000001
 21
41.99999999999995
 31
0.0
  0
LINE
  5
264
330
3C8
100
AcDbEntity
  8
graduations
100
AcDbLine
 10
-27.0
 20
50.00000000000001
 30
0.0
 11
-27.00000000000001
 21
42.00000000000014
 31
0.0
  0
LINE
  5
265
330
3C8
100
AcDbEntity
  8
graduations
100
AcDbLine
 10
-27.99999999999999
 20
50.00000000000002
 30
0.0
 11
-28.00000000000001
 21
42.00000000000008
 31
0.0
  0
LINE
  5
266
330
3C8
100
AcDbEntity
  8
graduations
100
AcDbLine
 10
-29.0
 20
50.00000000000002
 30
0.0
 11
-29.0
 21
41.99999999999999
 31
0.0
  0
LINE
  5
267
330
3C8
100
AcDbEntity
  8
graduations
  6
Continuous
370
    20
100
AcDbLine
 10
-29.99999999999999
 20
50.00000000000003
 30
0.0
 11
-30.00000000000003
 21
38.00000000000001
 31
0.0
  0
LINE
  5
268
330
3C8
100
AcDbEntity
  8
graduations
100
AcDbLine
 10
-31.0
 20
50.00000000000002
 30
0.0
 11
-31.0
 21
42.00000000000004
 31
0.0
  0
LINE
  5
269
330
3C8
100
AcDbEntity
  8
graduations
100
AcDbLine
 10
-31.99999999999999
 20
50.00000000000003
 30
0.0
 11
-32.00000000000001
 21
42.00000000000001
 31
0.0
  0
LINE
  5
26A
330
3C8
100
AcDbEntity
  8
graduations
100
AcDbLine
 10
-32.99999999999997
 20
50.00000000000004
 30
0.0
 11
-33.0
 21
42.00000000000001
 31
0.0
  0
LINE
  5
26B
330
3C8
100
AcDbEntity
  8
graduations
  6
Continuous
370
    20
100
AcDbLine
 10
-34.99999999999999
 20
50.00000000000004
 30
0.0
 11
-35.00000000000003
 21
39.99999999999994
 31
0.0
  0
LINE
  5
26C
330
3C8
100
AcDbEntity
  8
graduations
100
AcDbLine
 10
-34.0
 20
50.00000000000002
 30
0.0
 11
-34.0
 21
42.00000000000009
 31
0.0
  0
LINE
  5
26D
330
3C8
100
AcDbEntity
  8
graduations
100
AcDbLine
 10
-36.0
 20
50.00000000000003
 30
0.0
 11
-36.00000000000001
 21
42.00000000000002
 31
0.0
  0
LINE
  5
26E
330
3C8
100
AcDbEntity
  8
graduations
100
AcDbLine
 10
-37.0
 20
50.00000000000004
 30
0.0
 11
-37.00000000000003
 21
41.99999999999994
 31
0.0
  0
LINE
  5
26F
330
3C8
100
AcDbEntity
  8
graduations
100
AcDbLine
 10
-37.99999999999997
 20
50.00000000000006
 30
0.0
 11
-38.0
 21
41.99999999999996
 31
0.0
  0
LINE
  5
270
330
3C8
100
AcDbEntity
  8
graduations
100
AcDbLine
 10
-39.00000000000001
 20
50.00000000000002
 30
0.0
 11
-39.00000000000001
 21
42.00000000000007
 31
0.0
  0
LINE
  5
271
330
3C8
100
AcDbEntity
  8
graduations
  6
Continuous
370
    20
100
AcDbLine
 10
-39.99999999999999
 20
50.00000000000006
 30
0.0
 11
-40.00000000000001
 21
38.00000000000005
 31
0.0
  0
LINE
  5
272
330
3C8
100
AcDbEntity
  8
graduations
100
AcDbLine
 10
-41.0
 20
50.00000000000004
 30
0.0
 11
-41.00000000000003
 21
41.99999999999999
 31
0.0
  0
LINE
  5
273
330
3C8
100
AcDbEntity
  8
graduations
100
AcDbLine
 10
-41.99999999999999
 20
50.00000000000006
 30
0.0
 11
-42.00000000000003
 21
42.0
 31
0.0
  0
LINE
  5
274
330
3C8
100
AcDbEntity
  8
graduations
100
AcDbLine
 10
-42.99999999999997
 20
50.00000000000006
 30
0.0
 11
-43.0
 21
42.00000000000014
 31
0.0
  0
LINE
  5
275
330
3C8
100
AcDbEntity
  8
graduations
  6
Continuous
370
    20
100
AcDbLine
 10
-45.00000000000001
 20
50.00000000000001
 30
0.0
 11
-45.00000000000001
 21
40.00000000000004
 31
0.0
  0
LINE
  5
276
330
3C8
100
AcDbEntity
  8
graduations
100
AcDbLine
 10
-44.0
 20
50.00000000000001
 30
0.0
 11
-44.00000000000001
 21
42.00000000000002
 31
0.0
  0
LINE
  5
277
330
3C8
100
AcDbEntity
  8
graduations
100
AcDbLine
 10
-46.00000000000001
 20
50.00000000000001
 30
0.0
 11
-46.00000000000001
 21
42.00000000000006
 31
0.0
  0
LINE
  5
278
330
3C8
100
AcDbEntity
  8
graduations
100
AcDbLine
 10
-46.99999999999997
 20
50.00000000000009
 30
0.0
 11
-47.00000000000003
 21
41.99999999999999
 31
0.0
  0
LINE
  5
279
330
3C8
100
AcDbEntity
  8
graduations
100
AcDbLine
 10
-48.0
 20
50.00000000000001
 30
0.0
 11
-48.0
 21
42.00000000000004
 31
0.0
  0
LINE
  5
27A
330
3C8
100
AcDbEntity
  8
graduations
100
AcDbLine
 10
-49.00000000000003
 20
50.00000000000001
 30
0.0
 11
-49.00000000000003
 21
41.99999999999997
 31
0.0
  0
LINE
  5
27B
330
3C8
100
AcDbEntity
  8
graduations
  6
Continuous
370
    20
100
AcDbLine
 10
-50.0
 20
50.00000000000003
 30
0.0
 11
-50.00000000000003
 21
37.99999999999998
 31
0.0
  0
LINE
  5
27C
330
3C8
100
AcDbEntity
  8
graduations
100
AcDbLine
 10
-51.0
 20
50.00000000000006
 30
0.0
 11
-51.00000000000003
 21
41.99999999999997
 31
0.0
  0
LINE
  5
27D
330
3C8
100
AcDbEntity
  8
graduations
100
AcDbLine
 10
-52.0
 20
50.00000000000002
 30
0.0
 11
-52.0
 21
42.00000000000001
 31
0.0
  0
LINE
  5
27E
330
3C8
100
AcDbEntity
  8
graduations
100
AcDbLine
 10
-53.0
 20
50.00000000000004
 30
0.0
 11
-53.0
 21
42.00000000000002
 31
0.0
  0
LINE
  5
27F
330
3C8
100
AcDbEntity
  8
graduations
  6
Continuous
370
    20
100
AcDbLine
 10
-55.0
 20
50.00000000000007
 30
0.0
 11
-55.0
 21
40.00000000000009
 31
0.0
  0
LINE
  5
280
330
3C8
100
AcDbEntity
  8
graduations
100
AcDbLine
 10
-53.99999999999997
 20
50.00000000000009
 30
0.0
 11
-54.00000000000003
 21
42.00000000000001
 31
0.0
  0
LINE
  5
281
330
3C8
100
AcDbEntity
  8
graduations
100
AcDbLine
 10
-56.0
 20
50.00000000000007
 30
0.0
 11
-56.00000000000003
 21
41.99999999999998
 31
0.0
  0
LINE
  5
282
330
3C8
100
AcDbEntity
  8
graduations
100
AcDbLine
 10
-56.99999999999997
 20
50.00000000000011
 30
0.0
 11
-57.0
 21
42.00000000000013
 31
0.0
  0
LINE
  5
283
330
3C8
100
AcDbEntity
  8
graduations
100
AcDbLine
 10
-57.99999999999997
 20
50.00000000000013
 30
0.0
 11
-58.0
 21
42.00000000000013
 31
0.0
  0
LINE
  5
284
330
3C8
100
AcDbEntity
  8
graduations
100
AcDbLine
 10
-59.0
 20
50.00000000000009
 30
0.0
 11
-59.00000000000003
 21
42.00000000000001
 31
0.0
  0
LINE
  5
285
330
3C8
100
AcDbEntity
  8
graduations
  6
Continuous
370
    20
100
AcDbLine
 10
-60.0
 20
50.00000000000007
 30
0.0
 11
-60.00000000000003
 21
38.0
 31
0.0
  0
LINE
  5
286
330
3C8
100
AcDbEntity
  8
graduations
100
AcDbLine
 10
-61.0
 20
50.00000000000011
 30
0.0
 11
-61.0
 21
42.00000000000007
 31
0.0
  0
LINE
  5
287
330
3C8
100
AcDbEntity
  8
graduations
100
AcDbLine
 10
-62.0
 20
50.00000000000003
 30
0.0
 11
-62.00000000000003
 21
42.00000000000001
 31
0.0
  0
LINE
  5
288
330
3C8
100
AcDbEntity
  8
graduations
100
AcDbLine
 10
-63.0
 20
50.00000000000009
 30
0.0
 11
-63.0
 21
42.00000000000009
 31
0.0
  0
LINE
  5
289
330
3C8
100
AcDbEntity
  8
graduations
  6
Continuous
370
    20
100
AcDbLine
 10
-65.0
 20
50.00000000000008
 30
0.0
 11
-65.0
 21
40.00000000000013
 31
0.0
  0
LINE
  5
28A
330
3C8
100
AcDbEntity
  8
graduations
100
AcDbLine
 10
-63.99999999999997
 20
50.00000000000014
 30
0.0
 11
-64.0
 21
42.00000000000004
 31
0.0
  0
LINE
  5
28B
330
3C8
100
AcDbEntity
  8
graduations
100
AcDbLine
 10
-66.0
 20
50.00000000000009
 30
0.0
 11
-66.0
 21
42.00000000000012
 31
0.0
  0
LINE
  5
28C
330
3C8
100
AcDbEntity
  8
graduations
100
AcDbLine
 10
-67.0
 20
50.00000000000006
 30
0.0
 11
-67.00000000000003
 21
42.00000000000004
 31
0.0
  0
LINE
  5
28D
330
3C8
100
AcDbEntity
  8
graduations
100
AcDbLine
 10
-67.99999999999997
 20
50.00000000000015
 30
0.0
 11
-68.0
 21
42.00000000000007
 31
0.0
  0
LINE
  5
28E
330
3C8
100
AcDbEntity
  8
graduations
100
AcDbLine
 10
-69.0
 20
50.00000000000009
 30
0.0
 11
-69.0
 21
42.00000000000009
 31
0.0
  0
LINE
  5
28F
330
3C8
100
AcDbEntity
  8
graduations
  6
Continuous
370
    20
100
AcDbLine
 10
-70.0
 20
50.00000000000009
 30
0.0
 11
-70.00000000000003
 21
37.99999999999996
 31
0.0
  0
LINE
  5
290
330
3C8
100
AcDbEntity
  8
graduations
100
AcDbLine
 10
-71.0
 20
50.00000000000003
 30
0.0
 11
-71.0
 21
42.00000000000009
 31
0.0
  0
LINE
  5
291
330
3C8
100
AcDbEntity
  8
graduations
100
AcDbLine
 10
-72.0
 20
50.00000000000003
 30
0.0
 11
-72.0
 21
42.00000000000011
 31
0.0
  0
LINE
  5
292
330
3C8
100
AcDbEntity
  8
graduations
100
AcDbLine
 10
-73.0
 20
50.00000000000012
 30
0.0
 11
-73.0
 21
42.00000000000009
 31
0.0
  0
LINE
  5
293
330
3C8
100
AcDbEntity
  8
graduations
  6
Continuous
370
    20
100
AcDbLine
 10
-74.99999999999997
 20
50.00000000000014
 30
0.0
 11
-75.00000000000003
 21
40.00000000000006
 31
0.0
  0
LINE
  5
294
330
3C8
100
AcDbEntity
  8
graduations
100
AcDbLine
 10
-74.0
 20
50.00000000000009
 30
0.0
 11
-74.0
 21
42.00000000000007
 31
0.0
  0
LINE
  5
295
330
3C8
100
AcDbEntity
  8
graduations
100
AcDbLine
 10
-76.0
 20
50.00000000000007
 30
0.0
 11
-76.0
 21
42.00000000000012
 31
0.0
  0
LINE
  5
296
330
3C8
100
AcDbEntity
  8
graduations
100
AcDbLine
 10
-77.0
 20
50.00000000000005
 30
0.0
 11
-77.0
 21
42.00000000000013
 31
0.0
  0
LINE
  5
297
330
3C8
100
AcDbEntity
  8
graduations
100
AcDbLine
 10
-78.0
 20
50.00000000000006
 30
0.0
 11
-78.0
 21
42.00000000000006
 31
0.0
  0
LINE
  5
298
330
3C8
100
AcDbEntity
  8
graduations
100
AcDbLine
 10
-79.0
 20
50.00000000000011
 30
0.0
 11
-79.0
 21
42.00000000000014
 31
0.0
  0
LINE
  5
299
330
3C8
100
AcDbEntity
  8
graduations
  6
Continuous
370
    20
100
AcDbLine
 10
-80.0
 20
50.00000000000004
 30
0.0
 11
-80.00000000000003
 21
38.00000000000004
 31
0.0
  0
LINE
  5
29A
330
3C8
100
AcDbEntity
  8
graduations
100
AcDbLine
 10
-81.0
 20
50.00000000000004
 30
0.0
 11
-81.0
 21
42.00000000000012
 31
0.0
  0
LINE
  5
29B
330
3C8
100
AcDbEntity
  8
graduations
100
AcDbLine
 10
-82.0
 20
50.00000000000012
 30
0.0
 11
-82.0
 21
42.00000000000013
 31
0.0
  0
LINE
  5
29C
330
3C8
100
AcDbEntity
  8
graduations
100
AcDbLine
 10
-83.0
 20
50.00000000000005
 30
0.0
 11
-83.0
 21
42.0000000000001
 31
0.0
  0
LINE
  5
29D
330
3C8
100
AcDbEntity
  8
graduations
  6
Continuous
370
    20
100
AcDbLine
 10
-85.0
 20
50.00000000000014
 30
0.0
 11
-85.0
 21
40.00000000000015
 31
0.0
  0
LINE
  5
29E
330
3C8
100
AcDbEntity
  8
graduations
100
AcDbLine
 10
-84.0
 20
50.00000000000016
 30
0.0
 11
-84.0
 21
42.00000000000014
 31
0.0
  0
LINE
  5
29F
330
3C8
100
AcDbEntity
  8
graduations
100
AcDbLine
 10
-86.0
 20
50.00000000000009
 30
0.0
 11
-86.0
 21
42.00000000000018
 31
0.0
  0
LINE
  5
2A0
330
3C8
100
AcDbEntity
  8
graduations
100
AcDbLine
 10
-87.0
 20
50.00000000000009
 30
0.0
 11
-87.0
 21
42.0000000000002
 31
0.0
  0
LINE
  5
2A1
330
3C8
100
AcDbEntity
  8
graduations
100
AcDbLine
 10
-88.0
 20
50.00000000000004
 30
0.0
 11
-88.0
 21
42.0
 31
0.0
  0
LINE
  5
2A2
330
3C8
100
AcDbEntity
  8
graduations
100
AcDbLine
 10
-89.0
 20
50.0000000000002
 30
0.0
 11
-89.0
 21
41.99999999999997
 31
0.0
  0
LINE
  5
2A3
330
3C8
100
AcDbEntity
  8
graduations
  6
Continuous
370
    20
100
AcDbLine
 10
-90.0
 20
50.00000000000021
 30
0.0
 11
-90.00000000000003
 21
38.00000000000006
 31
0.0
  0
LINE
  5
2A4
330
3C8
100
AcDbEntity
  8
graduations
100
AcDbLine
 10
-91.0
 20
50.00000000000007
 30
0.0
 11
-91.0
 21
42.00000000000009
 31
0.0
  0
LINE
  5
2A5
330
3C8
100
AcDbEntity
  8
graduations
100
AcDbLine
 10
-92.0
 20
50.00000000000024
 30
0.0
 11
-92.0
 21
42.00000000000016
 31
0.0
  0
LINE
  5
2A6
330
3C8
100
AcDbEntity
  8
graduations
100
AcDbLine
 10
-93.0
 20
50.00000000000008
 30
0.0
 11
-93.0
 21
42.00000000000009
 31
0.0
  0
LINE
  5
2A7
330
3C8
100
AcDbEntity
  8
graduations
  6
Continuous
370
    20
100
AcDbLine
 10
-95.0
 20
50.00000000000011
 30
0.0
 11
-95.0
 21
40.0000000000002
 31
0.0
  0
LINE
  5
2A8
330
3C8
100
AcDbEntity
  8
graduations
100
AcDbLine
 10
-94.0
 20
50.00000000000009
 30
0.0
 11
-94.0
 21
42.00000000000008
 31
0.0
  0
LINE
  5
2A9
330
3C8
100
AcDbEntity
  8
graduations
100
AcDbLine
 10
-96.0
 20
50.00000000000016
 30
0.0
 11
-96.0
 21
42.00000000000011
 31
0.0
  0
LINE
  5
2AA
330
3C8
100
AcDbEntity
  8
graduations
100
AcDbLine
 10
-97.0
 20
50.00000000000021
 30
0.0
 11
-97.0
 21
42.00000000000016
 31
0.0
  0
LINE
  5
2AB
330
3C8
100
AcDbEntity
  8
graduations
100
AcDbLine
 10
-98.0
 20
50.00000000000018
 30
0.0
 11
-98.0
 21
42.00000000000021
 31
0.0
  0
LINE
  5
2AC
330
3C8
100
AcDbEntity
  8
graduations
100
AcDbLine
 10
-98.99999999999997
 20
50.0000000000002
 30
0.0
 11
-99.0
 21
42.00000000000014
 31
0.0
  0
LINE
  5
2AD
330
3C8
100
AcDbEntity
  8
graduations
  6
Continuous
370
    20
100
AcDbLine
 10
-100.0
 20
50.00000000000024
 30
0.0
 11
-100.0
 21
37.99999999999977
 31
0.0
  0
MTEXT
  5
2AE
330
3C8
100
AcDbEntity
  8
textes
100
AcDbMText
 10
-29.03679999999781
 20
32.768000000001
 30
0.0
 40
4.0
 41
100.0
 46
0.0
 71
     1
 72
     1
  1
1
  7
textstyle107
 11
-1.0
 21
3.673940397442059E-16
 31
0.0
 73
     1
 44
1.0
  0
MTEXT
  5
2AF
330
3C8
100
AcDbEntity
  8
textes
100
AcDbMText
 10
-39.03679999999783
 20
32.76800000000104
 30
0.0
 40
4.0
 41
100.0
 46
0.0
 71
     1
 72
     1
  1
2
  7
textstyle108
 11
-1.0
 21
3.673940397442059E-16
 31
0.0
 73
     1
 44
1.0
  0
MTEXT
  5
2B0
330
3C8
100
AcDbEntity
  8
textes
100
AcDbMText
 10
-49.03679999999784
 20
32.76800000000105
 30
0.0
 40
4.0
 41
100.0
 46
0.0
 71
     1
 72
     1
  1
3
  7
textstyle109
 11
-1.0
 21
3.673940397442059E-16
 31
0.0
 73
     1
 44
1.0
  0
MTEXT
  5
2B1
330
3C8
100
AcDbEntity
  8
textes
100
AcDbMText
 10
-59.03679999999784
 20
32.76800000000112
 30
0.0
 40
4.0
 41
100.0
 46
0.0
 71
     1
 72
     1
  1
4
  7
textstyle110
 11
-1.0
 21
3.673940397442059E-16
 31
0.0
 73
     1
 44
1.0
  0
MTEXT
  5
2B2
330
3C8
100
AcDbEntity
  8
textes
100
AcDbMText
 10
-69.03679999999784
 20
32.76800000000121
 30
0.0
 40
4.0
 41
100.0
 46
0.0
 71
     1
 72
     1
  1
5
  7
textstyle111
 11
-1.0
 21
3.673940397442059E-16
 31
0.0
 73
     1
 44
1.0
  0
MTEXT
  5
2B3
330
3C8
100
AcDbEntity
  8
textes
100
AcDbMText
 10
-79.03679999999784
 20
32.76800000000107
 30
0.0
 40
4.0
 41
100.0
 46
0.0
 71
     1
 72
     1
  1
6
  7
textstyle112
 11
-1.0
 21
3.673940397442059E-16
 31
0.0
 73
     1
 44
1.0
  0
MTEXT
  5
2B4
330
3C8
100
AcDbEntity
  8
textes
100
AcDbMText
 10
-89.03679999999784
 20
32.76800000000109
 30
0.0
 40
4.0
 41
100.0
 46
0.0
 71
     1
 72
     1
  1
7
  7
textstyle113
 11
-1.0
 21
3.673940397442059E-16
 31
0.0
 73
     1
 44
1.0
  0
MTEXT
  5
2B5
330
3C8
100
AcDbEntity
  8
textes
100
AcDbMText
 10
-97.53679999999781
 20
32.76800000000124
 30
0.0
 40
4.0
 41
100.0
 46
0.0
 71
     1
 72
     1
  1
8
  7
textstyle114
 11
-1.0
 21
3.673940397442059E-16
 31
0.0
 73
     1
 44
1.0
  0
LINE
  5
2B6
330
3C8
100
AcDbEntity
  8
graduations
100
AcDbLine
 10
-21.5
 20
49.00000000000027
 30
0.0
 11
-21.50000000000001
 21
43.00000000000011
 31
0.0
  0
LINE
  5
2B7
330
3C8
100
AcDbEntity
  8
graduations
100
AcDbLine
 10
-22.5
 20
48.99999999999955
 30
0.0
 11
-22.50000000000001
 21
42.9999999999999
 31
0.0
  0
LINE
  5
2B8
330
3C8
100
AcDbEntity
  8
graduations
100
AcDbLine
 10
-23.5
 20
49.00000000000053
 30
0.0
 11
-23.50000000000001
 21
42.99999999999999
 31
0.0
  0
LINE
  5
2B9
330
3C8
100
AcDbEntity
  8
graduations
100
AcDbLine
 10
-24.49999999999999
 20
48.99999999999969
 30
0.0
 11
-24.50000000000001
 21
43.00000000000003
 31
0.0
  0
LINE
  5
2BA
330
3C8
100
AcDbEntity
  8
graduations
100
AcDbLine
 10
-25.50000000000001
 20
49.00000000000036
 30
0.0
 11
-25.50000000000001
 21
43.00000000000001
 31
0.0
  0
LINE
  5
2BB
330
3C8
100
AcDbEntity
  8
graduations
100
AcDbLine
 10
-26.5
 20
48.99999999999996
 30
0.0
 11
-26.5
 21
43.00000000000011
 31
0.0
  0
LINE
  5
2BC
330
3C8
100
AcDbEntity
  8
graduations
100
AcDbLine
 10
-27.5
 20
48.99999999999988
 30
0.0
 11
-27.5
 21
43.00000000000004
 31
0.0
  0
LINE
  5
2BD
330
3C8
100
AcDbEntity
  8
graduations
100
AcDbLine
 10
-28.50000000000001
 20
48.99999999999932
 30
0.0
 11
-28.5
 21
42.99999999999992
 31
0.0
  0
LINE
  5
2BE
330
3C8
100
AcDbEntity
  8
graduations
100
AcDbLine
 10
-29.5
 20
48.99999999999981
 30
0.0
 11
-29.50000000000001
 21
42.9999999999999
 31
0.0
  0
LINE
  5
2BF
330
3C8
100
AcDbEntity
  8
graduations
100
AcDbLine
 10
-30.50000000000001
 20
48.99999999999977
 30
0.0
 11
-30.50000000000001
 21
43.00000000000001
 31
0.0
  0
LINE
  5
2C0
330
3C8
100
AcDbEntity
  8
graduations
100
AcDbLine
 10
-31.5
 20
48.99999999999983
 30
0.0
 11
-31.50000000000003
 21
42.99999999999991
 31
0.0
  0
LINE
  5
2C1
330
3C8
100
AcDbEntity
  8
graduations
100
AcDbLine
 10
-32.49999999999999
 20
49.00000000000036
 30
0.0
 11
-32.50000000000001
 21
43.00000000000001
 31
0.0
  0
LINE
  5
2C2
330
3C8
100
AcDbEntity
  8
graduations
100
AcDbLine
 10
-33.5
 20
49.00000000000004
 30
0.0
 11
-33.50000000000001
 21
43.00000000000004
 31
0.0
  0
LINE
  5
2C3
330
3C8
100
AcDbEntity
  8
graduations
100
AcDbLine
 10
-34.5
 20
49.00000000000043
 30
0.0
 11
-34.50000000000001
 21
43.00000000000007
 31
0.0
  0
LINE
  5
2C4
330
3C8
100
AcDbEntity
  8
graduations
100
AcDbLine
 10
-35.5
 20
49.00000000000023
 30
0.0
 11
-35.50000000000001
 21
43.00000000000003
 31
0.0
  0
LINE
  5
2C5
330
3C8
100
AcDbEntity
  8
graduations
100
AcDbLine
 10
-36.49999999999999
 20
48.99999999999984
 30
0.0
 11
-36.5
 21
43.00000000000007
 31
0.0
  0
LINE
  5
2C6
330
3C8
100
AcDbEntity
  8
graduations
100
AcDbLine
 10
-37.50000000000001
 20
48.99999999999994
 30
0.0
 11
-37.5
 21
43.00000000000001
 31
0.0
  0
LINE
  5
2C7
330
3C8
100
AcDbEntity
  8
graduations
100
AcDbLine
 10
-38.5
 20
49.00000000000043
 30
0.0
 11
-38.50000000000001
 21
43.00000000000001
 31
0.0
  0
LINE
  5
2C8
330
3C8
100
AcDbEntity
  8
graduations
100
AcDbLine
 10
-39.50000000000001
 20
49.00000000000013
 30
0.0
 11
-39.5
 21
42.99999999999994
 31
0.0
  0
LINE
  5
2C9
330
3C8
100
AcDbEntity
  8
graduations
100
AcDbLine
 10
-40.49999999999999
 20
48.99999999999986
 30
0.0
 11
-40.50000000000001
 21
42.99999999999999
 31
0.0
  0
LINE
  5
2CA
330
3C8
100
AcDbEntity
  8
graduations
100
AcDbLine
 10
-41.5
 20
49.00000000000007
 30
0.0
 11
-41.50000000000003
 21
43.00000000000005
 31
0.0
  0
LINE
  5
2CB
330
3C8
100
AcDbEntity
  8
graduations
100
AcDbLine
 10
-42.49999999999997
 20
49.00000000000026
 30
0.0
 11
-42.5
 21
43.00000000000007
 31
0.0
  0
LINE
  5
2CC
330
3C8
100
AcDbEntity
  8
graduations
100
AcDbLine
 10
-43.49999999999999
 20
49.00000000000014
 30
0.0
 11
-43.5
 21
43.0
 31
0.0
  0
LINE
  5
2CD
330
3C8
100
AcDbEntity
  8
graduations
100
AcDbLine
 10
-44.49999999999997
 20
49.00000000000023
 30
0.0
 11
-44.50000000000001
 21
43.0000000000001
 31
0.0
  0
LINE
  5
2CE
330
3C8
100
AcDbEntity
  8
graduations
100
AcDbLine
 10
-45.5
 20
49.0000000000005
 30
0.0
 11
-45.50000000000001
 21
43.00000000000001
 31
0.0
  0
LINE
  5
2CF
330
3C8
100
AcDbEntity
  8
graduations
100
AcDbLine
 10
-46.50000000000001
 20
48.99999999999981
 30
0.0
 11
-46.5
 21
43.00000000000009
 31
0.0
  0
LINE
  5
2D0
330
3C8
100
AcDbEntity
  8
graduations
100
AcDbLine
 10
-47.50000000000001
 20
49.00000000000004
 30
0.0
 11
-47.50000000000001
 21
43.0
 31
0.0
  0
LINE
  5
2D1
330
3C8
100
AcDbEntity
  8
graduations
100
AcDbLine
 10
-48.5
 20
49.00000000000024
 30
0.0
 11
-48.50000000000003
 21
43.00000000000002
 31
0.0
  0
LINE
  5
2D2
330
3C8
100
AcDbEntity
  8
graduations
100
AcDbLine
 10
-49.49999999999997
 20
48.99999999999987
 30
0.0
 11
-49.5
 21
43.00000000000011
 31
0.0
  0
LINE
  5
2D3
330
3C8
100
AcDbEntity
  8
graduations
100
AcDbLine
 10
-50.5
 20
49.00000000000004
 30
0.0
 11
-50.5
 21
43.00000000000011
 31
0.0
  0
LINE
  5
2D4
330
3C8
100
AcDbEntity
  8
graduations
100
AcDbLine
 10
-51.49999999999997
 20
48.99999999999996
 30
0.0
 11
-51.5
 21
43.00000000000007
 31
0.0
  0
LINE
  5
2D5
330
3C8
100
AcDbEntity
  8
graduations
100
AcDbLine
 10
-52.5
 20
48.99999999999994
 30
0.0
 11
-52.50000000000003
 21
43.00000000000002
 31
0.0
  0
LINE
  5
2D6
330
3C8
100
AcDbEntity
  8
graduations
100
AcDbLine
 10
-53.5
 20
49.00000000000009
 30
0.0
 11
-53.5
 21
43.0000000000001
 31
0.0
  0
LINE
  5
2D7
330
3C8
100
AcDbEntity
  8
graduations
100
AcDbLine
 10
-54.5
 20
49.00000000000011
 30
0.0
 11
-54.50000000000003
 21
43.00000000000005
 31
0.0
  0
LINE
  5
2D8
330
3C8
100
AcDbEntity
  8
graduations
100
AcDbLine
 10
-55.5
 20
49.00000000000024
 30
0.0
 11
-55.5
 21
43.0000000000001
 31
0.0
  0
LINE
  5
2D9
330
3C8
100
AcDbEntity
  8
graduations
100
AcDbLine
 10
-56.5
 20
49.00000000000031
 30
0.0
 11
-56.5
 21
43.00000000000007
 31
0.0
  0
LINE
  5
2DA
330
3C8
100
AcDbEntity
  8
graduations
100
AcDbLine
 10
-57.5
 20
48.99999999999999
 30
0.0
 11
-57.5
 21
43.00000000000006
 31
0.0
  0
LINE
  5
2DB
330
3C8
100
AcDbEntity
  8
graduations
100
AcDbLine
 10
-58.5
 20
49.00000000000033
 30
0.0
 11
-58.5
 21
43.0000000000001
 31
0.0
  0
LINE
  5
2DC
330
3C8
100
AcDbEntity
  8
graduations
100
AcDbLine
 10
-59.5
 20
48.99999999999996
 30
0.0
 11
-59.50000000000003
 21
43.00000000000003
 31
0.0
  0
LINE
  5
2DD
330
3C8
100
AcDbEntity
  8
graduations
100
AcDbLine
 10
-60.5
 20
49.00000000000006
 30
0.0
 11
-60.5
 21
43.00000000000003
 31
0.0
  0
LINE
  5
2DE
330
3C8
100
AcDbEntity
  8
graduations
100
AcDbLine
 10
-61.5
 20
49.00000000000001
 30
0.0
 11
-61.5
 21
43.00000000000006
 31
0.0
  0
LINE
  5
2DF
330
3C8
100
AcDbEntity
  8
graduations
100
AcDbLine
 10
-62.5
 20
49.00000000000007
 30
0.0
 11
-62.5
 21
43.00000000000004
 31
0.0
  0
LINE
  5
2E0
330
3C8
100
AcDbEntity
  8
graduations
100
AcDbLine
 10
-63.5
 20
48.99999999999989
 30
0.0
 11
-63.5
 21
43.00000000000009
 31
0.0
  0
LINE
  5
2E1
330
3C8
100
AcDbEntity
  8
graduations
100
AcDbLine
 10
-64.5
 20
49.00000000000032
 30
0.0
 11
-64.5
 21
43.00000000000004
 31
0.0
  0
LINE
  5
2E2
330
3C8
100
AcDbEntity
  8
graduations
100
AcDbLine
 10
-65.5
 20
48.99999999999991
 30
0.0
 11
-65.50000000000003
 21
42.99999999999996
 31
0.0
  0
LINE
  5
2E3
330
3C8
100
AcDbEntity
  8
graduations
100
AcDbLine
 10
-66.5
 20
48.99999999999999
 30
0.0
 11
-66.5
 21
43.00000000000012
 31
0.0
  0
LINE
  5
2E4
330
3C8
100
AcDbEntity
  8
graduations
100
AcDbLine
 10
-67.5
 20
49.00000000000007
 30
0.0
 11
-67.5
 21
43.00000000000011
 31
0.0
  0
LINE
  5
2E5
330
3C8
100
AcDbEntity
  8
graduations
100
AcDbLine
 10
-68.49999999999997
 20
49.00000000000018
 30
0.0
 11
-68.50000000000003
 21
43.00000000000006
 31
0.0
  0
LINE
  5
2E6
330
3C8
100
AcDbEntity
  8
graduations
100
AcDbLine
 10
-69.5
 20
49.00000000000009
 30
0.0
 11
-69.5
 21
43.00000000000012
 31
0.0
  0
LINE
  5
2E7
330
3C8
100
AcDbEntity
  8
graduations
100
AcDbLine
 10
-70.5
 20
49.00000000000021
 30
0.0
 11
-70.5
 21
43.00000000000011
 31
0.0
  0
LINE
  5
2E8
330
3C8
100
AcDbEntity
  8
graduations
100
AcDbLine
 10
-71.5
 20
49.0
 30
0.0
 11
-71.5
 21
43.00000000000009
 31
0.0
  0
LINE
  5
2E9
330
3C8
100
AcDbEntity
  8
graduations
100
AcDbLine
 10
-72.5
 20
49.00000000000009
 30
0.0
 11
-72.50000000000003
 21
42.99999999999998
 31
0.0
  0
LINE
  5
2EA
330
3C8
100
AcDbEntity
  8
graduations
100
AcDbLine
 10
-73.5
 20
49.00000000000018
 30
0.0
 11
-73.5
 21
43.00000000000018
 31
0.0
  0
LINE
  5
2EB
330
3C8
100
AcDbEntity
  8
graduations
100
AcDbLine
 10
-74.5
 20
49.00000000000009
 30
0.0
 11
-74.5
 21
43.00000000000006
 31
0.0
  0
LINE
  5
2EC
330
3C8
100
AcDbEntity
  8
graduations
100
AcDbLine
 10
-75.5
 20
49.00000000000005
 30
0.0
 11
-75.5
 21
43.00000000000007
 31
0.0
  0
LINE
  5
2ED
330
3C8
100
AcDbEntity
  8
graduations
100
AcDbLine
 10
-76.49999999999997
 20
49.00000000000025
 30
0.0
 11
-76.50000000000003
 21
43.00000000000002
 31
0.0
  0
LINE
  5
2EE
330
3C8
100
AcDbEntity
  8
graduations
100
AcDbLine
 10
-77.5
 20
49.00000000000018
 30
0.0
 11
-77.50000000000003
 21
43.00000000000006
 31
0.0
  0
LINE
  5
2EF
330
3C8
100
AcDbEntity
  8
graduations
100
AcDbLine
 10
-78.5
 20
49.00000000000015
 30
0.0
 11
-78.50000000000003
 21
43.00000000000004
 31
0.0
  0
LINE
  5
2F0
330
3C8
100
AcDbEntity
  8
graduations
100
AcDbLine
 10
-79.5
 20
49.0
 30
0.0
 11
-79.5
 21
43.00000000000015
 31
0.0
  0
LINE
  5
2F1
330
3C8
100
AcDbEntity
  8
graduations
100
AcDbLine
 10
-80.5
 20
49.0000000000001
 30
0.0
 11
-80.5
 21
43.00000000000018
 31
0.0
  0
LINE
  5
2F2
330
3C8
100
AcDbEntity
  8
graduations
100
AcDbLine
 10
-81.5
 20
48.99999999999995
 30
0.0
 11
-81.5
 21
43.0000000000001
 31
0.0
  0
LINE
  5
2F3
330
3C8
100
AcDbEntity
  8
graduations
100
AcDbLine
 10
-82.5
 20
49.00000000000007
 30
0.0
 11
-82.5
 21
43.00000000000013
 31
0.0
  0
LINE
  5
2F4
330
3C8
100
AcDbEntity
  8
graduations
100
AcDbLine
 10
-83.5
 20
49.00000000000015
 30
0.0
 11
-83.5
 21
43.00000000000008
 31
0.0
  0
LINE
  5
2F5
330
3C8
100
AcDbEntity
  8
graduations
100
AcDbLine
 10
-84.5
 20
49.00000000000007
 30
0.0
 11
-84.50000000000003
 21
43.00000000000001
 31
0.0
  0
LINE
  5
2F6
330
3C8
100
AcDbEntity
  8
graduations
100
AcDbLine
 10
-85.5
 20
49.00000000000006
 30
0.0
 11
-85.5
 21
43.00000000000005
 31
0.0
  0
LINE
  5
2F7
330
3C8
100
AcDbEntity
  8
graduations
100
AcDbLine
 10
-86.5
 20
49.00000000000002
 30
0.0
 11
-86.50000000000003
 21
42.99999999999994
 31
0.0
  0
LINE
  5
2F8
330
3C8
100
AcDbEntity
  8
graduations
100
AcDbLine
 10
-87.5
 20
49.00000000000011
 30
0.0
 11
-87.5
 21
43.00000000000016
 31
0.0
  0
LINE
  5
2F9
330
3C8
100
AcDbEntity
  8
graduations
100
AcDbLine
 10
-88.5
 20
49.00000000000018
 30
0.0
 11
-88.5
 21
43.00000000000004
 31
0.0
  0
LINE
  5
2FA
330
3C8
100
AcDbEntity
  8
graduations
100
AcDbLine
 10
-89.5
 20
49.00000000000014
 30
0.0
 11
-89.5
 21
43.00000000000018
 31
0.0
  0
LINE
  5
2FB
330
3C8
100
AcDbEntity
  8
graduations
100
AcDbLine
 10
-90.5
 20
49.00000000000007
 30
0.0
 11
-90.5
 21
43.00000000000025
 31
0.0
  0
LINE
  5
2FC
330
3C8
100
AcDbEntity
  8
graduations
100
AcDbLine
 10
-91.5
 20
49.00000000000001
 30
0.0
 11
-91.5
 21
43.00000000000004
 31
0.0
  0
LINE
  5
2FD
330
3C8
100
AcDbEntity
  8
graduations
100
AcDbLine
 10
-92.5
 20
49.00000000000013
 30
0.0
 11
-92.5
 21
43.00000000000004
 31
0.0
  0
LINE
  5
2FE
330
3C8
100
AcDbEntity
  8
graduations
100
AcDbLine
 10
-93.5
 20
49.00000000000018
 30
0.0
 11
-93.5
 21
43.00000000000023
 31
0.0
  0
LINE
  5
2FF
330
3C8
100
AcDbEntity
  8
graduations
100
AcDbLine
 10
-94.5
 20
49.00000000000012
 30
0.0
 11
-94.5
 21
43.0000000000001
 31
0.0
  0
LINE
  5
300
330
3C8
100
AcDbEntity
  8
graduations
100
AcDbLine
 10
-95.5
 20
49.00000000000009
 30
0.0
 11
-95.5
 21
43.00000000000016
 31
0.0
  0
LINE
  5
301
330
3C8
100
AcDbEntity
  8
graduations
100
AcDbLine
 10
-96.50000000000003
 20
49.0
 30
0.0
 11
-96.5
 21
43.00000000000006
 31
0.0
  0
LINE
  5
302
330
3C8
100
AcDbEntity
  8
graduations
100
AcDbLine
 10
-97.5
 20
49.00000000000023
 30
0.0
 11
-97.5
 21
43.00000000000031
 31
0.0
  0
LINE
  5
303
330
3C8
100
AcDbEntity
  8
graduations
100
AcDbLine
 10
-98.5
 20
49.00000000000018
 30
0.0
 11
-98.5
 21
43.00000000000007
 31
0.0
  0
LINE
  5
304
330
3C8
100
AcDbEntity
  8
graduations
100
AcDbLine
 10
-99.5
 20
49.00000000000009
 30
0.0
 11
-99.5
 21
43.00000000000021
 31
0.0
  0
LINE
  5
305
330
3C8
100
AcDbEntity
  8
graduations
100
AcDbLine
 10
-20.5
 20
48.99999999999969
 30
0.0
 11
-20.5
 21
42.99999999999991
 31
0.0
  0
LINE
  5
306
330
3C8
100
AcDbEntity
  8
Contours
100
AcDbLine
 10
-20.25
 20
47.49999999999981
 30
0.0
 11
-20.25
 21
44.49999999999992
 31
0.0
  0
LINE
  5
307
330
3C8
100
AcDbEntity
  8
Contours
100
AcDbLine
 10
-20.75
 20
47.49999999999999
 30
0.0
 11
-20.75
 21
44.49999999999991
 31
0.0
  0
LINE
  5
308
330
3C8
100
AcDbEntity
  8
Contours
100
AcDbLine
 10
-21.25
 20
47.49999999999978
 30
0.0
 11
-21.25000000000001
 21
44.50000000000009
 31
0.0
  0
LINE
  5
309
330
3C8
100
AcDbEntity
  8
Contours
100
AcDbLine
 10
-21.75
 20
47.49999999999993
 30
0.0
 11
-21.75000000000001
 21
44.49999999999991
 31
0.0
  0
LINE
  5
30A
330
3C8
100
AcDbEntity
  8
Contours
100
AcDbLine
 10
-22.25000000000001
 20
47.50000000000038
 30
0.0
 11
-22.25
 21
44.50000000000006
 31
0.0
  0
LINE
  5
30B
330
3C8
100
AcDbEntity
  8
Contours
100
AcDbLine
 10
-22.75000000000001
 20
47.49999999999984
 30
0.0
 11
-22.75000000000001
 21
44.50000000000009
 31
0.0
  0
LINE
  5
30C
330
3C8
100
AcDbEntity
  8
Contours
100
AcDbLine
 10
-23.24999999999999
 20
47.50000000000027
 30
0.0
 11
-23.25
 21
44.50000000000011
 31
0.0
  0
LINE
  5
30D
330
3C8
100
AcDbEntity
  8
Contours
100
AcDbLine
 10
-23.75
 20
47.49999999999983
 30
0.0
 11
-23.75000000000001
 21
44.49999999999996
 31
0.0
  0
LINE
  5
30E
330
3C8
100
AcDbEntity
  8
Contours
100
AcDbLine
 10
-24.25
 20
47.50000000000004
 30
0.0
 11
-24.25
 21
44.49999999999997
 31
0.0
  0
LINE
  5
30F
330
3C8
100
AcDbEntity
  8
Contours
100
AcDbLine
 10
-24.75
 20
47.5
 30
0.0
 11
-24.75000000000001
 21
44.49999999999987
 31
0.0
  0
LINE
  5
310
330
3C8
100
AcDbEntity
  8
Contours
100
AcDbLine
 10
-25.25000000000001
 20
47.49999999999978
 30
0.0
 11
-25.25000000000001
 21
44.5000000000001
 31
0.0
  0
LINE
  5
311
330
3C8
100
AcDbEntity
  8
Contours
100
AcDbLine
 10
-25.75
 20
47.50000000000036
 30
0.0
 11
-25.75
 21
44.49999999999998
 31
0.0
  0
LINE
  5
312
330
3C8
100
AcDbEntity
  8
Contours
100
AcDbLine
 10
-26.25
 20
47.49999999999991
 30
0.0
 11
-26.25000000000001
 21
44.50000000000003
 31
0.0
  0
LINE
  5
313
330
3C8
100
AcDbEntity
  8
Contours
100
AcDbLine
 10
-26.75000000000001
 20
47.5
 30
0.0
 11
-26.75000000000001
 21
44.5
 31
0.0
  0
LINE
  5
314
330
3C8
100
AcDbEntity
  8
Contours
100
AcDbLine
 10
-27.25000000000001
 20
47.49999999999999
 30
0.0
 11
-27.25
 21
44.50000000000013
 31
0.0
  0
LINE
  5
315
330
3C8
100
AcDbEntity
  8
Contours
100
AcDbLine
 10
-27.75
 20
47.50000000000001
 30
0.0
 11
-27.75
 21
44.50000000000012
 31
0.0
  0
LINE
  5
316
330
3C8
100
AcDbEntity
  8
Contours
100
AcDbLine
 10
-28.24999999999999
 20
47.50000000000001
 30
0.0
 11
-28.25000000000001
 21
44.50000000000003
 31
0.0
  0
LINE
  5
317
330
3C8
100
AcDbEntity
  8
Contours
100
AcDbLine
 10
-28.75
 20
47.49999999999983
 30
0.0
 11
-28.75000000000001
 21
44.50000000000006
 31
0.0
  0
LINE
  5
318
330
3C8
100
AcDbEntity
  8
Contours
100
AcDbLine
 10
-29.25
 20
47.49999999999974
 30
0.0
 11
-29.25
 21
44.4999999999999
 31
0.0
  0
LINE
  5
319
330
3C8
100
AcDbEntity
  8
Contours
100
AcDbLine
 10
-29.75000000000001
 20
47.50000000000003
 30
0.0
 11
-29.75
 21
44.49999999999987
 31
0.0
  0
LINE
  5
31A
330
3C8
100
AcDbEntity
  8
Contours
100
AcDbLine
 10
-30.25000000000001
 20
47.50000000000011
 30
0.0
 11
-30.25
 21
44.5000000000001
 31
0.0
  0
LINE
  5
31B
330
3C8
100
AcDbEntity
  8
Contours
100
AcDbLine
 10
-30.75000000000001
 20
47.49999999999982
 30
0.0
 11
-30.75000000000001
 21
44.50000000000011
 31
0.0
  0
LINE
  5
31C
330
3C8
100
AcDbEntity
  8
Contours
100
AcDbLine
 10
-31.25000000000001
 20
47.49999999999997
 30
0.0
 11
-31.25
 21
44.49999999999995
 31
0.0
  0
LINE
  5
31D
330
3C8
100
AcDbEntity
  8
Contours
100
AcDbLine
 10
-31.75
 20
47.4999999999997
 30
0.0
 11
-31.75
 21
44.50000000000009
 31
0.0
  0
LINE
  5
31E
330
3C8
100
AcDbEntity
  8
Contours
100
AcDbLine
 10
-32.25
 20
47.49999999999996
 30
0.0
 11
-32.25
 21
44.50000000000009
 31
0.0
  0
LINE
  5
31F
330
3C8
100
AcDbEntity
  8
Contours
100
AcDbLine
 10
-32.75
 20
47.50000000000012
 30
0.0
 11
-32.75000000000001
 21
44.50000000000006
 31
0.0
  0
LINE
  5
320
330
3C8
100
AcDbEntity
  8
Contours
100
AcDbLine
 10
-33.25
 20
47.50000000000014
 30
0.0
 11
-33.25000000000001
 21
44.50000000000006
 31
0.0
  0
LINE
  5
321
330
3C8
100
AcDbEntity
  8
Contours
100
AcDbLine
 10
-33.74999999999999
 20
47.49999999999999
 30
0.0
 11
-33.75000000000001
 21
44.49999999999997
 31
0.0
  0
LINE
  5
322
330
3C8
100
AcDbEntity
  8
Contours
100
AcDbLine
 10
-34.25000000000001
 20
47.50000000000008
 30
0.0
 11
-34.25000000000003
 21
44.50000000000008
 31
0.0
  0
LINE
  5
323
330
3C8
100
AcDbEntity
  8
Contours
100
AcDbLine
 10
-34.75
 20
47.49999999999975
 30
0.0
 11
-34.75
 21
44.50000000000007
 31
0.0
  0
LINE
  5
324
330
3C8
100
AcDbEntity
  8
Contours
100
AcDbLine
 10
-35.25
 20
47.49999999999991
 30
0.0
 11
-35.25
 21
44.50000000000002
 31
0.0
  0
LINE
  5
325
330
3C8
100
AcDbEntity
  8
Contours
100
AcDbLine
 10
-35.75
 20
47.49999999999989
 30
0.0
 11
-35.75
 21
44.50000000000012
 31
0.0
  0
LINE
  5
326
330
3C8
100
AcDbEntity
  8
Contours
100
AcDbLine
 10
-36.25000000000001
 20
47.49999999999978
 30
0.0
 11
-36.25
 21
44.50000000000006
 31
0.0
  0
LINE
  5
327
330
3C8
100
AcDbEntity
  8
Contours
100
AcDbLine
 10
-36.74999999999999
 20
47.50000000000004
 30
0.0
 11
-36.75000000000003
 21
44.50000000000008
 31
0.0
  0
LINE
  5
328
330
3C8
100
AcDbEntity
  8
Contours
100
AcDbLine
 10
-37.25000000000001
 20
47.49999999999994
 30
0.0
 11
-37.25000000000003
 21
44.50000000000004
 31
0.0
  0
LINE
  5
329
330
3C8
100
AcDbEntity
  8
Contours
100
AcDbLine
 10
-37.75
 20
47.50000000000014
 30
0.0
 11
-37.75
 21
44.50000000000002
 31
0.0
  0
LINE
  5
32A
330
3C8
100
AcDbEntity
  8
Contours
100
AcDbLine
 10
-38.25000000000001
 20
47.49999999999984
 30
0.0
 11
-38.25000000000003
 21
44.49999999999994
 31
0.0
  0
LINE
  5
32B
330
3C8
100
AcDbEntity
  8
Contours
100
AcDbLine
 10
-38.75
 20
47.50000000000014
 30
0.0
 11
-38.75000000000001
 21
44.5000000000001
 31
0.0
  0
LINE
  5
32C
330
3C8
100
AcDbEntity
  8
Contours
100
AcDbLine
 10
-39.24999999999999
 20
47.50000000000015
 30
0.0
 11
-39.25
 21
44.49999999999999
 31
0.0
  0
LINE
  5
32D
330
3C8
100
AcDbEntity
  8
Contours
100
AcDbLine
 10
-39.75
 20
47.50000000000018
 30
0.0
 11
-39.75
 21
44.49999999999999
 31
0.0
  0
LINE
  5
32E
330
3C8
100
AcDbEntity
  8
Contours
100
AcDbLine
 10
-40.25
 20
47.49999999999997
 30
0.0
 11
-40.25000000000003
 21
44.49999999999994
 31
0.0
  0
LINE
  5
32F
330
3C8
100
AcDbEntity
  8
Contours
100
AcDbLine
 10
-40.74999999999999
 20
47.50000000000004
 30
0.0
 11
-40.75000000000001
 21
44.50000000000006
 31
0.0
  0
LINE
  5
330
330
3C8
100
AcDbEntity
  8
Contours
100
AcDbLine
 10
-41.25
 20
47.49999999999993
 30
0.0
 11
-41.25
 21
44.50000000000011
 31
0.0
  0
LINE
  5
331
330
3C8
100
AcDbEntity
  8
Contours
100
AcDbLine
 10
-41.74999999999999
 20
47.50000000000027
 30
0.0
 11
-41.75000000000003
 21
44.49999999999989
 31
0.0
  0
LINE
  5
332
330
3C8
100
AcDbEntity
  8
Contours
100
AcDbLine
 10
-42.25000000000001
 20
47.49999999999989
 30
0.0
 11
-42.25
 21
44.50000000000001
 31
0.0
  0
LINE
  5
333
330
3C8
100
AcDbEntity
  8
Contours
100
AcDbLine
 10
-42.75
 20
47.49999999999982
 30
0.0
 11
-42.75
 21
44.50000000000003
 31
0.0
  0
LINE
  5
334
330
3C8
100
AcDbEntity
  8
Contours
100
AcDbLine
 10
-43.25
 20
47.49999999999977
 30
0.0
 11
-43.25
 21
44.50000000000011
 31
0.0
  0
LINE
  5
335
330
3C8
100
AcDbEntity
  8
Contours
100
AcDbLine
 10
-43.75
 20
47.50000000000009
 30
0.0
 11
-43.75
 21
44.50000000000003
 31
0.0
  0
LINE
  5
336
330
3C8
100
AcDbEntity
  8
Contours
100
AcDbLine
 10
-44.24999999999999
 20
47.50000000000018
 30
0.0
 11
-44.25
 21
44.50000000000014
 31
0.0
  0
LINE
  5
337
330
3C8
100
AcDbEntity
  8
Contours
100
AcDbLine
 10
-44.75
 20
47.49999999999997
 30
0.0
 11
-44.75000000000001
 21
44.49999999999996
 31
0.0
  0
LINE
  5
338
330
3C8
100
AcDbEntity
  8
Contours
100
AcDbLine
 10
-45.25000000000001
 20
47.50000000000025
 30
0.0
 11
-45.25
 21
44.5
 31
0.0
  0
LINE
  5
339
330
3C8
100
AcDbEntity
  8
Contours
100
AcDbLine
 10
-45.75
 20
47.50000000000013
 30
0.0
 11
-45.75000000000001
 21
44.50000000000005
 31
0.0
  0
LINE
  5
33A
330
3C8
100
AcDbEntity
  8
Contours
100
AcDbLine
 10
-46.25
 20
47.50000000000006
 30
0.0
 11
-46.25
 21
44.50000000000006
 31
0.0
  0
LINE
  5
33B
330
3C8
100
AcDbEntity
  8
Contours
100
AcDbLine
 10
-46.74999999999999
 20
47.50000000000006
 30
0.0
 11
-46.75
 21
44.49999999999996
 31
0.0
  0
LINE
  5
33C
330
3C8
100
AcDbEntity
  8
Contours
100
AcDbLine
 10
-47.25000000000001
 20
47.50000000000011
 30
0.0
 11
-47.25000000000001
 21
44.49999999999999
 31
0.0
  0
LINE
  5
33D
330
3C8
100
AcDbEntity
  8
Contours
100
AcDbLine
 10
-47.75000000000001
 20
47.50000000000001
 30
0.0
 11
-47.75000000000001
 21
44.50000000000003
 31
0.0
  0
LINE
  5
33E
330
3C8
100
AcDbEntity
  8
Contours
100
AcDbLine
 10
-48.25
 20
47.5000000000001
 30
0.0
 11
-48.25
 21
44.50000000000003
 31
0.0
  0
LINE
  5
33F
330
3C8
100
AcDbEntity
  8
Contours
100
AcDbLine
 10
-48.75
 20
47.50000000000009
 30
0.0
 11
-48.75
 21
44.50000000000002
 31
0.0
  0
LINE
  5
340
330
3C8
100
AcDbEntity
  8
Contours
100
AcDbLine
 10
-49.25
 20
47.50000000000006
 30
0.0
 11
-49.25
 21
44.50000000000008
 31
0.0
  0
LINE
  5
341
330
3C8
100
AcDbEntity
  8
Contours
100
AcDbLine
 10
-49.75
 20
47.50000000000001
 30
0.0
 11
-49.75
 21
44.50000000000009
 31
0.0
  0
LINE
  5
342
330
3C8
100
AcDbEntity
  8
Contours
100
AcDbLine
 10
-50.25000000000003
 20
47.50000000000009
 30
0.0
 11
-50.25
 21
44.50000000000007
 31
0.0
  0
LINE
  5
343
330
3C8
100
AcDbEntity
  8
Contours
100
AcDbLine
 10
-50.75
 20
47.50000000000004
 30
0.0
 11
-50.75
 21
44.50000000000006
 31
0.0
  0
LINE
  5
344
330
3C8
100
AcDbEntity
  8
Contours
100
AcDbLine
 10
-51.25000000000003
 20
47.49999999999998
 30
0.0
 11
-51.25
 21
44.50000000000007
 31
0.0
  0
LINE
  5
345
330
3C8
100
AcDbEntity
  8
Contours
100
AcDbLine
 10
-51.75
 20
47.50000000000001
 30
0.0
 11
-51.75
 21
44.50000000000003
 31
0.0
  0
LINE
  5
346
330
3C8
100
AcDbEntity
  8
Contours
100
AcDbLine
 10
-52.25
 20
47.49999999999992
 30
0.0
 11
-52.25
 21
44.50000000000007
 31
0.0
  0
LINE
  5
347
330
3C8
100
AcDbEntity
  8
Contours
100
AcDbLine
 10
-52.75
 20
47.50000000000006
 30
0.0
 11
-52.75
 21
44.49999999999999
 31
0.0
  0
LINE
  5
348
330
3C8
100
AcDbEntity
  8
Contours
100
AcDbLine
 10
-53.25
 20
47.50000000000012
 30
0.0
 11
-53.25
 21
44.49999999999998
 31
0.0
  0
LINE
  5
349
330
3C8
100
AcDbEntity
  8
Contours
100
AcDbLine
 10
-53.75
 20
47.5000000000001
 30
0.0
 11
-53.75
 21
44.50000000000001
 31
0.0
  0
LINE
  5
34A
330
3C8
100
AcDbEntity
  8
Contours
100
AcDbLine
 10
-54.25
 20
47.50000000000001
 30
0.0
 11
-54.25
 21
44.50000000000006
 31
0.0
  0
LINE
  5
34B
330
3C8
100
AcDbEntity
  8
Contours
100
AcDbLine
 10
-54.75
 20
47.50000000000006
 30
0.0
 11
-54.75000000000003
 21
44.50000000000002
 31
0.0
  0
LINE
  5
34C
330
3C8
100
AcDbEntity
  8
Contours
100
AcDbLine
 10
-55.25
 20
47.50000000000015
 30
0.0
 11
-55.25
 21
44.50000000000003
 31
0.0
  0
LINE
  5
34D
330
3C8
100
AcDbEntity
  8
Contours
100
AcDbLine
 10
-55.75
 20
47.5000000000001
 30
0.0
 11
-55.75000000000003
 21
44.49999999999998
 31
0.0
  0
LINE
  5
34E
330
3C8
100
AcDbEntity
  8
Contours
100
AcDbLine
 10
-56.25
 20
47.50000000000009
 30
0.0
 11
-56.25
 21
44.50000000000009
 31
0.0
  0
LINE
  5
34F
330
3C8
100
AcDbEntity
  8
Contours
100
AcDbLine
 10
-56.75
 20
47.50000000000014
 30
0.0
 11
-56.75
 21
44.50000000000011
 31
0.0
  0
LINE
  5
350
330
3C8
100
AcDbEntity
  8
Contours
100
AcDbLine
 10
-57.25
 20
47.50000000000004
 30
0.0
 11
-57.25
 21
44.50000000000004
 31
0.0
  0
LINE
  5
351
330
3C8
100
AcDbEntity
  8
Contours
100
AcDbLine
 10
-57.75
 20
47.50000000000016
 30
0.0
 11
-57.75
 21
44.50000000000004
 31
0.0
  0
LINE
  5
352
330
3C8
100
AcDbEntity
  8
Contours
100
AcDbLine
 10
-58.25
 20
47.49999999999997
 30
0.0
 11
-58.25
 21
44.5000000000001
 31
0.0
  0
LINE
  5
353
330
3C8
100
AcDbEntity
  8
Contours
100
AcDbLine
 10
-58.75
 20
47.49999999999999
 30
0.0
 11
-58.75
 21
44.50000000000003
 31
0.0
  0
LINE
  5
354
330
3C8
100
AcDbEntity
  8
Contours
100
AcDbLine
 10
-59.25
 20
47.5000000000001
 30
0.0
 11
-59.25
 21
44.50000000000009
 31
0.0
  0
LINE
  5
355
330
3C8
100
AcDbEntity
  8
Contours
100
AcDbLine
 10
-59.75
 20
47.50000000000009
 30
0.0
 11
-59.75
 21
44.50000000000009
 31
0.0
  0
LINE
  5
356
330
3C8
100
AcDbEntity
  8
Contours
100
AcDbLine
 10
-60.25
 20
47.50000000000012
 30
0.0
 11
-60.25
 21
44.50000000000006
 31
0.0
  0
LINE
  5
357
330
3C8
100
AcDbEntity
  8
Contours
100
AcDbLine
 10
-60.75
 20
47.50000000000015
 30
0.0
 11
-60.75000000000003
 21
44.50000000000009
 31
0.0
  0
LINE
  5
358
330
3C8
100
AcDbEntity
  8
Contours
100
AcDbLine
 10
-61.25
 20
47.50000000000003
 30
0.0
 11
-61.25
 21
44.50000000000004
 31
0.0
  0
LINE
  5
359
330
3C8
100
AcDbEntity
  8
Contours
100
AcDbLine
 10
-61.75000000000003
 20
47.50000000000001
 30
0.0
 11
-61.75
 21
44.50000000000006
 31
0.0
  0
LINE
  5
35A
330
3C8
100
AcDbEntity
  8
Contours
100
AcDbLine
 10
-62.25
 20
47.5
 30
0.0
 11
-62.25000000000003
 21
44.49999999999999
 31
0.0
  0
LINE
  5
35B
330
3C8
100
AcDbEntity
  8
Contours
100
AcDbLine
 10
-62.74999999999997
 20
47.50000000000019
 30
0.0
 11
-62.75
 21
44.50000000000001
 31
0.0
  0
LINE
  5
35C
330
3C8
100
AcDbEntity
  8
Contours
100
AcDbLine
 10
-63.25
 20
47.5000000000001
 30
0.0
 11
-63.25000000000003
 21
44.50000000000005
 31
0.0
  0
LINE
  5
35D
330
3C8
100
AcDbEntity
  8
Contours
100
AcDbLine
 10
-63.75
 20
47.50000000000001
 30
0.0
 11
-63.75
 21
44.50000000000006
 31
0.0
  0
LINE
  5
35E
330
3C8
100
AcDbEntity
  8
Contours
100
AcDbLine
 10
-64.25
 20
47.50000000000009
 30
0.0
 11
-64.25000000000003
 21
44.49999999999999
 31
0.0
  0
LINE
  5
35F
330
3C8
100
AcDbEntity
  8
Contours
100
AcDbLine
 10
-64.75
 20
47.50000000000009
 30
0.0
 11
-64.75
 21
44.50000000000003
 31
0.0
  0
LINE
  5
360
330
3C8
100
AcDbEntity
  8
Contours
100
AcDbLine
 10
-65.25
 20
47.50000000000014
 30
0.0
 11
-65.25
 21
44.5000000000002
 31
0.0
  0
LINE
  5
361
330
3C8
100
AcDbEntity
  8
Contours
100
AcDbLine
 10
-65.75
 20
47.50000000000009
 30
0.0
 11
-65.75
 21
44.50000000000011
 31
0.0
  0
LINE
  5
362
330
3C8
100
AcDbEntity
  8
Contours
100
AcDbLine
 10
-66.25
 20
47.50000000000001
 30
0.0
 11
-66.25
 21
44.50000000000012
 31
0.0
  0
LINE
  5
363
330
3C8
100
AcDbEntity
  8
Contours
100
AcDbLine
 10
-66.75
 20
47.50000000000013
 30
0.0
 11
-66.75
 21
44.5000000000001
 31
0.0
  0
LINE
  5
364
330
3C8
100
AcDbEntity
  8
Contours
100
AcDbLine
 10
-67.25
 20
47.50000000000007
 30
0.0
 11
-67.25
 21
44.50000000000011
 31
0.0
  0
LINE
  5
365
330
3C8
100
AcDbEntity
  8
Contours
100
AcDbLine
 10
-67.75000000000003
 20
47.5000000000001
 30
0.0
 11
-67.75
 21
44.50000000000011
 31
0.0
  0
LINE
  5
366
330
3C8
100
AcDbEntity
  8
Contours
100
AcDbLine
 10
-68.25
 20
47.50000000000005
 30
0.0
 11
-68.25
 21
44.50000000000004
 31
0.0
  0
LINE
  5
367
330
3C8
100
AcDbEntity
  8
Contours
100
AcDbLine
 10
-68.75
 20
47.50000000000014
 30
0.0
 11
-68.75
 21
44.50000000000021
 31
0.0
  0
LINE
  5
368
330
3C8
100
AcDbEntity
  8
Contours
100
AcDbLine
 10
-69.25
 20
47.50000000000003
 30
0.0
 11
-69.25
 21
44.50000000000007
 31
0.0
  0
LINE
  5
369
330
3C8
100
AcDbEntity
  8
Contours
100
AcDbLine
 10
-69.75
 20
47.50000000000011
 30
0.0
 11
-69.75
 21
44.50000000000004
 31
0.0
  0
LINE
  5
36A
330
3C8
100
AcDbEntity
  8
Contours
100
AcDbLine
 10
-70.25
 20
47.50000000000013
 30
0.0
 11
-70.25000000000003
 21
44.5
 31
0.0
  0
LINE
  5
36B
330
3C8
100
AcDbEntity
  8
Contours
100
AcDbLine
 10
-70.75
 20
47.50000000000015
 30
0.0
 11
-70.75
 21
44.50000000000009
 31
0.0
  0
LINE
  5
36C
330
3C8
100
AcDbEntity
  8
Contours
100
AcDbLine
 10
-71.25
 20
47.50000000000009
 30
0.0
 11
-71.25000000000003
 21
44.49999999999996
 31
0.0
  0
LINE
  5
36D
330
3C8
100
AcDbEntity
  8
Contours
100
AcDbLine
 10
-71.75
 20
47.50000000000011
 30
0.0
 11
-71.75
 21
44.50000000000013
 31
0.0
  0
LINE
  5
36E
330
3C8
100
AcDbEntity
  8
Contours
100
AcDbLine
 10
-72.25
 20
47.50000000000001
 30
0.0
 11
-72.25
 21
44.50000000000008
 31
0.0
  0
LINE
  5
36F
330
3C8
100
AcDbEntity
  8
Contours
100
AcDbLine
 10
-72.75
 20
47.50000000000003
 30
0.0
 11
-72.75
 21
44.50000000000014
 31
0.0
  0
LINE
  5
370
330
3C8
100
AcDbEntity
  8
Contours
100
AcDbLine
 10
-73.25000000000003
 20
47.50000000000006
 30
0.0
 11
-73.25
 21
44.50000000000001
 31
0.0
  0
LINE
  5
371
330
3C8
100
AcDbEntity
  8
Contours
100
AcDbLine
 10
-73.75
 20
47.50000000000009
 30
0.0
 11
-73.75
 21
44.50000000000007
 31
0.0
  0
LINE
  5
372
330
3C8
100
AcDbEntity
  8
Contours
100
AcDbLine
 10
-74.25
 20
47.50000000000016
 30
0.0
 11
-74.25000000000003
 21
44.49999999999996
 31
0.0
  0
LINE
  5
373
330
3C8
100
AcDbEntity
  8
Contours
100
AcDbLine
 10
-74.75
 20
47.49999999999997
 30
0.0
 11
-74.75
 21
44.50000000000006
 31
0.0
  0
LINE
  5
374
330
3C8
100
AcDbEntity
  8
Contours
100
AcDbLine
 10
-75.25
 20
47.50000000000011
 30
0.0
 11
-75.25
 21
44.50000000000012
 31
0.0
  0
LINE
  5
375
330
3C8
100
AcDbEntity
  8
Contours
100
AcDbLine
 10
-75.75
 20
47.50000000000011
 30
0.0
 11
-75.75000000000003
 21
44.49999999999998
 31
0.0
  0
LINE
  5
376
330
3C8
100
AcDbEntity
  8
Contours
100
AcDbLine
 10
-76.25
 20
47.50000000000014
 30
0.0
 11
-76.25
 21
44.50000000000007
 31
0.0
  0
LINE
  5
377
330
3C8
100
AcDbEntity
  8
Contours
100
AcDbLine
 10
-76.75
 20
47.50000000000009
 30
0.0
 11
-76.75
 21
44.50000000000005
 31
0.0
  0
LINE
  5
378
330
3C8
100
AcDbEntity
  8
Contours
100
AcDbLine
 10
-77.25
 20
47.50000000000004
 30
0.0
 11
-77.25
 21
44.50000000000014
 31
0.0
  0
LINE
  5
379
330
3C8
100
AcDbEntity
  8
Contours
100
AcDbLine
 10
-77.75
 20
47.50000000000006
 30
0.0
 11
-77.75
 21
44.50000000000002
 31
0.0
  0
LINE
  5
37A
330
3C8
100
AcDbEntity
  8
Contours
100
AcDbLine
 10
-78.25
 20
47.50000000000016
 30
0.0
 11
-78.25
 21
44.5000000000002
 31
0.0
  0
LINE
  5
37B
330
3C8
100
AcDbEntity
  8
Contours
100
AcDbLine
 10
-78.75
 20
47.50000000000018
 30
0.0
 11
-78.75
 21
44.50000000000006
 31
0.0
  0
LINE
  5
37C
330
3C8
100
AcDbEntity
  8
Contours
100
AcDbLine
 10
-79.25
 20
47.50000000000009
 30
0.0
 11
-79.25
 21
44.50000000000008
 31
0.0
  0
LINE
  5
37D
330
3C8
100
AcDbEntity
  8
Contours
100
AcDbLine
 10
-79.75
 20
47.50000000000007
 30
0.0
 11
-79.75
 21
44.50000000000007
 31
0.0
  0
LINE
  5
37E
330
3C8
100
AcDbEntity
  8
Contours
100
AcDbLine
 10
-80.25
 20
47.50000000000004
 30
0.0
 11
-80.25
 21
44.50000000000006
 31
0.0
  0
LINE
  5
37F
330
3C8
100
AcDbEntity
  8
Contours
100
AcDbLine
 10
-80.75
 20
47.5000000000002
 30
0.0
 11
-80.75
 21
44.5000000000002
 31
0.0
  0
LINE
  5
380
330
3C8
100
AcDbEntity
  8
Contours
100
AcDbLine
 10
-81.25
 20
47.50000000000006
 30
0.0
 11
-81.25
 21
44.50000000000011
 31
0.0
  0
LINE
  5
381
330
3C8
100
AcDbEntity
  8
Contours
100
AcDbLine
 10
-81.75
 20
47.50000000000013
 30
0.0
 11
-81.75
 21
44.50000000000018
 31
0.0
  0
LINE
  5
382
330
3C8
100
AcDbEntity
  8
Contours
100
AcDbLine
 10
-82.25
 20
47.50000000000014
 30
0.0
 11
-82.25
 21
44.5000000000001
 31
0.0
  0
LINE
  5
383
330
3C8
100
AcDbEntity
  8
Contours
100
AcDbLine
 10
-82.75
 20
47.50000000000016
 30
0.0
 11
-82.75
 21
44.50000000000011
 31
0.0
  0
LINE
  5
384
330
3C8
100
AcDbEntity
  8
Contours
100
AcDbLine
 10
-83.25
 20
47.5000000000001
 30
0.0
 11
-83.25
 21
44.50000000000014
 31
0.0
  0
LINE
  5
385
330
3C8
100
AcDbEntity
  8
Contours
100
AcDbLine
 10
-83.75
 20
47.50000000000009
 30
0.0
 11
-83.75
 21
44.50000000000009
 31
0.0
  0
LINE
  5
386
330
3C8
100
AcDbEntity
  8
Contours
100
AcDbLine
 10
-84.25
 20
47.50000000000013
 30
0.0
 11
-84.25
 21
44.50000000000016
 31
0.0
  0
LINE
  5
387
330
3C8
100
AcDbEntity
  8
Contours
100
AcDbLine
 10
-84.75
 20
47.50000000000016
 30
0.0
 11
-84.75000000000003
 21
44.49999999999999
 31
0.0
  0
LINE
  5
388
330
3C8
100
AcDbEntity
  8
Contours
100
AcDbLine
 10
-85.25
 20
47.50000000000006
 30
0.0
 11
-85.25
 21
44.50000000000001
 31
0.0
  0
LINE
  5
389
330
3C8
100
AcDbEntity
  8
Contours
100
AcDbLine
 10
-85.75
 20
47.50000000000019
 30
0.0
 11
-85.75
 21
44.50000000000021
 31
0.0
  0
LINE
  5
38A
330
3C8
100
AcDbEntity
  8
Contours
100
AcDbLine
 10
-86.25
 20
47.50000000000014
 30
0.0
 11
-86.25000000000003
 21
44.50000000000005
 31
0.0
  0
LINE
  5
38B
330
3C8
100
AcDbEntity
  8
Contours
100
AcDbLine
 10
-86.75
 20
47.49999999999999
 30
0.0
 11
-86.75
 21
44.50000000000018
 31
0.0
  0
LINE
  5
38C
330
3C8
100
AcDbEntity
  8
Contours
100
AcDbLine
 10
-87.25
 20
47.5000000000001
 30
0.0
 11
-87.25
 21
44.50000000000006
 31
0.0
  0
LINE
  5
38D
330
3C8
100
AcDbEntity
  8
Contours
100
AcDbLine
 10
-87.75
 20
47.50000000000021
 30
0.0
 11
-87.75
 21
44.50000000000021
 31
0.0
  0
LINE
  5
38E
330
3C8
100
AcDbEntity
  8
Contours
100
AcDbLine
 10
-88.25
 20
47.50000000000014
 30
0.0
 11
-88.25
 21
44.50000000000011
 31
0.0
  0
LINE
  5
38F
330
3C8
100
AcDbEntity
  8
Contours
100
AcDbLine
 10
-88.75
 20
47.50000000000014
 30
0.0
 11
-88.75
 21
44.50000000000006
 31
0.0
  0
LINE
  5
390
330
3C8
100
AcDbEntity
  8
Contours
100
AcDbLine
 10
-89.25
 20
47.50000000000011
 30
0.0
 11
-89.25
 21
44.50000000000017
 31
0.0
  0
LINE
  5
391
330
3C8
100
AcDbEntity
  8
Contours
100
AcDbLine
 10
-89.75
 20
47.50000000000017
 30
0.0
 11
-89.75
 21
44.50000000000014
 31
0.0
  0
LINE
  5
392
330
3C8
100
AcDbEntity
  8
Contours
100
AcDbLine
 10
-90.25
 20
47.50000000000022
 30
0.0
 11
-90.25000000000003
 21
44.50000000000006
 31
0.0
  0
LINE
  5
393
330
3C8
100
AcDbEntity
  8
Contours
100
AcDbLine
 10
-90.75
 20
47.50000000000023
 30
0.0
 11
-90.75
 21
44.50000000000009
 31
0.0
  0
LINE
  5
394
330
3C8
100
AcDbEntity
  8
Contours
100
AcDbLine
 10
-91.25
 20
47.50000000000006
 30
0.0
 11
-91.25
 21
44.5000000000001
 31
0.0
  0
LINE
  5
395
330
3C8
100
AcDbEntity
  8
Contours
100
AcDbLine
 10
-91.75
 20
47.50000000000005
 30
0.0
 11
-91.75
 21
44.50000000000017
 31
0.0
  0
LINE
  5
396
330
3C8
100
AcDbEntity
  8
Contours
100
AcDbLine
 10
-92.25
 20
47.50000000000012
 30
0.0
 11
-92.25
 21
44.50000000000018
 31
0.0
  0
LINE
  5
397
330
3C8
100
AcDbEntity
  8
Contours
100
AcDbLine
 10
-92.75
 20
47.50000000000021
 30
0.0
 11
-92.75
 21
44.50000000000018
 31
0.0
  0
LINE
  5
398
330
3C8
100
AcDbEntity
  8
Contours
100
AcDbLine
 10
-93.25000000000003
 20
47.49999999999998
 30
0.0
 11
-93.25
 21
44.5
 31
0.0
  0
LINE
  5
399
330
3C8
100
AcDbEntity
  8
Contours
100
AcDbLine
 10
-93.75
 20
47.50000000000017
 30
0.0
 11
-93.75
 21
44.50000000000005
 31
0.0
  0
LINE
  5
39A
330
3C8
100
AcDbEntity
  8
Contours
100
AcDbLine
 10
-94.25
 20
47.50000000000009
 30
0.0
 11
-94.25000000000003
 21
44.50000000000001
 31
0.0
  0
LINE
  5
39B
330
3C8
100
AcDbEntity
  8
Contours
100
AcDbLine
 10
-94.75
 20
47.50000000000014
 30
0.0
 11
-94.75
 21
44.50000000000009
 31
0.0
  0
LINE
  5
39C
330
3C8
100
AcDbEntity
  8
Contours
100
AcDbLine
 10
-95.25
 20
47.50000000000001
 30
0.0
 11
-95.25
 21
44.50000000000006
 31
0.0
  0
LINE
  5
39D
330
3C8
100
AcDbEntity
  8
Contours
100
AcDbLine
 10
-95.75
 20
47.50000000000002
 30
0.0
 11
-95.75
 21
44.50000000000006
 31
0.0
  0
LINE
  5
39E
330
3C8
100
AcDbEntity
  8
Contours
100
AcDbLine
 10
-96.25
 20
47.50000000000013
 30
0.0
 11
-96.25000000000003
 21
44.50000000000006
 31
0.0
  0
LINE
  5
39F
330
3C8
100
AcDbEntity
  8
Contours
100
AcDbLine
 10
-96.75
 20
47.50000000000012
 30
0.0
 11
-96.75
 21
44.50000000000003
 31
0.0
  0
LINE
  5
3A0
330
3C8
100
AcDbEntity
  8
Contours
100
AcDbLine
 10
-97.25000000000003
 20
47.49999999999999
 30
0.0
 11
-97.25
 21
44.5000000000001
 31
0.0
  0
LINE
  5
3A1
330
3C8
100
AcDbEntity
  8
Contours
100
AcDbLine
 10
-97.75
 20
47.5000000000002
 30
0.0
 11
-97.75000000000003
 21
44.50000000000005
 31
0.0
  0
LINE
  5
3A2
330
3C8
100
AcDbEntity
  8
Contours
100
AcDbLine
 10
-98.25
 20
47.50000000000005
 30
0.0
 11
-98.25
 21
44.50000000000007
 31
0.0
  0
LINE
  5
3A3
330
3C8
100
AcDbEntity
  8
Contours
100
AcDbLine
 10
-98.75
 20
47.50000000000022
 30
0.0
 11
-98.75
 21
44.5000000000002
 31
0.0
  0
LINE
  5
3A4
330
3C8
100
AcDbEntity
  8
Contours
100
AcDbLine
 10
-99.25
 20
47.49999999999999
 30
0.0
 11
-99.25
 21
44.49999999999997
 31
0.0
  0
LINE
  5
3A5
330
3C8
100
AcDbEntity
  8
Contours
100
AcDbLine
 10
-99.75
 20
47.50000000000011
 30
0.0
 11
-99.75
 21
44.50000000000006
 31
0.0
  0
MTEXT
  5
3A6
330
3C8
100
AcDbEntity
  8
textes
100
AcDbMText
 10
-32.18560000000043
 20
27.44320000000095
 30
0.0
 40
4.0
 41
100.0
 46
0.0
 71
     3
 72
     1
  1
String\~Action\~Gauge
  7
textstyle115
 73
     1
 44
1.0
  0
MTEXT
  5
3A7
330
3C8
100
AcDbEntity
  8
textes
100
AcDbMText
 10
-41.19680000000072
 20
21.50400000000074
 30
0.0
 40
4.0
 41
100.0
 46
0.0
 71
     3
 72
     1
  1
Jauge\~d'action
  7
textstyle116
 73
     1
 44
1.0
  0
MTEXT
  5
3A8
330
3C8
100
AcDbEntity
  8
textes
100
AcDbMText
 10
-92.6016000000025
 20
19.25120000000071
 30
0.0
 40
1.0
 41
100.0
 46
0.0
 71
     7
 72
     1
  1
www.labellenote.fr
  7
textstyle117
 11
2.832769448823990E-16
 21
1.0
 31
0.0
 73
     1
 44
1.0
  0
LINE
  5
3A9
330
3C8
100
AcDbEntity
  8
Contours
  6
DASHDOT
100
AcDbLine
 10
-10.0
 20
-30.0
 30
0.0
 11
-9.999999999999996
 21
70.0
 31
0.0
  0
ENDSEC
  0
SECTION
  2
OBJECTS
  0
DICTIONARY
  5
3B6
330
0
100
AcDbDictionary
281
     1
  3
ACAD_DETAILVIEWSTYLE
350
4D1
  3
ACAD_GROUP
350
3B7
  3
ACAD_LAYOUT
350
3C3
  3
ACAD_MATERIAL
350
3EC
  3
ACAD_MLEADERSTYLE
350
4D0
  3
ACAD_MLINESTYLE
350
3C0
  3
ACAD_PLOTSETTINGS
350
3C2
  3
ACAD_PLOTSTYLENAME
350
3B8
  3
ACAD_SCALELIST
350
3F0
  3
ACAD_SECTIONVIEWSTYLE
350
4D2
  3
ACAD_TABLESTYLE
350
4CF
  3
ACAD_VISUALSTYLE
350
3D3
  3
AcDbVariableDictionary
350
4CD
  3
QCAD_OBJECTS
350
414
  0
SUN
  5
412
330
3D2
100
AcDbSun
 90
        1
290
     0
 63
     7
421
 16777215
 40
1.0
291
     1
 91
  2455826
 92
 54000000
292
     0
 70
     2
 71
   256
280
     1
  0
DICTIONARY
  5
4D1
102
{ACAD_REACTORS
330
3B6
102
}
330
3B6
100
AcDbDictionary
281
     1
  0
DICTIONARY
  5
3B7
102
{ACAD_REACTORS
330
3B6
102
}
330
3B6
100
AcDbDictionary
281
     1
  0
DICTIONARY
  5
3C3
102
{ACAD_REACTORS
330
3B6
102
}
330
3B6
100
AcDbDictionary
281
     1
  3
Layout1
350
3C7
  3
Layout2
350
3CF
  3
Model
350
3CB
  0
DICTIONARY
  5
3EC
102
{ACAD_REACTORS
330
3B6
102
}
330
3B6
100
AcDbDictionary
281
     1
  3
ByBlock
350
3EE
  3
ByLayer
350
3ED
  3
Global
350
3EF
  0
DICTIONARY
  5
4D0
102
{ACAD_REACTORS
330
3B6
102
}
330
3B6
100
AcDbDictionary
281
     1
  0
DICTIONARY
  5
3C0
102
{ACAD_REACTORS
330
3B6
102
}
330
3B6
100
AcDbDictionary
281
     1
  3
Standard
350
3C1
  0
DICTIONARY
  5
3C2
102
{ACAD_REACTORS
330
3B6
102
}
330
3B6
100
AcDbDictionary
281
     1
  0
ACDBDICTIONARYWDFLT
  5
3B8
102
{ACAD_REACTORS
330
3B6
102
}
330
3B6
100
AcDbDictionary
281
     1
  3
Normal
350
3B9
100
AcDbDictionaryWithDefault
340
3B9
  0
DICTIONARY
  5
3F0
102
{ACAD_REACTORS
330
3B6
102
}
330
3B6
100
AcDbDictionary
281
     1
  3
A0
350
3F1
  3
A1
350
3F2
  3
A2
350
3F3
  3
A3
350
3F4
  3
A4
350
3F5
  3
A5
350
3F6
  3
A6
350
3F7
  3
A7
350
3F8
  3
A8
350
3F9
  3
A9
350
3FA
  3
B0
350
3FB
  3
B1
350
3FC
  3
B2
350
3FD
  3
B3
350
3FE
  3
B4
350
3FF
  3
B5
350
400
  3
B6
350
401
  3
B7
350
402
  3
B8
350
403
  3
B9
350
404
  3
C0
350
405
  3
C1
350
406
  3
C2
350
407
  3
C3
350
408
  3
C4
350
409
  3
C5
350
40A
  3
C6
350
40B
  3
C7
350
40C
  3
C8
350
40D
  3
C9
350
40E
  3
D0
350
40F
  3
D1
350
410
  3
D2
350
411
  0
DICTIONARY
  5
4D2
102
{ACAD_REACTORS
330
3B6
102
}
330
3B6
100
AcDbDictionary
281
     1
  0
DICTIONARY
  5
4CF
102
{ACAD_REACTORS
330
3B6
102
}
330
3B6
100
AcDbDictionary
281
     1
  0
DICTIONARY
  5
3D3
102
{ACAD_REACTORS
330
3B6
102
}
330
3B6
100
AcDbDictionary
281
     1
  3
2dWireframe
350
3D8
  3
Basic
350
3DB
  3
Brighten
350
3DF
  3
ColorChange
350
3E3
  3
Conceptual
350
3DD
  3
Dim
350
3DE
  3
EdgeColorOff
350
3E6
  3
Facepattern
350
3E2
  3
Flat
350
3D4
  3
FlatWithEdges
350
3D5
  3
Gouraud
350
3D6
  3
GouraudWithEdges
350
3D7
  3
Hidden
350
3DA
  3
JitterOff
350
3E4
  3
Linepattern
350
3E1
  3
OverhangOff
350
3E5
  3
Realistic
350
3DC
  3
Shaded
350
3EB
  3
Shaded with edges
350
3EA
  3
Shades of Gray
350
3E7
  3
Sketchy
350
3E8
  3
Thicken
350
3E0
  3
Wireframe
350
3D9
  3
X-Ray
350
3E9
  0
DICTIONARY
  5
4CD
102
{ACAD_REACTORS
330
3B6
102
}
330
3B6
100
AcDbDictionary
281
     1
  3
CANNOSCALE
350
4CE
  0
DICTIONARY
  5
414
102
{ACAD_REACTORS
330
3B6
102
}
330
3B6
100
AcDbDictionary
281
     1
  3
Grid/DisplayGrid00
350
415
  3
Grid/DisplayGrid01
350
416
  3
Grid/DisplayGrid02
350
417
  3
Grid/DisplayGrid03
350
418
  3
Grid/GridSpacingX00
350
419
  3
Grid/GridSpacingX01
350
41A
  3
Grid/GridSpacingX02
350
41B
  3
Grid/GridSpacingX03
350
41C
  3
Grid/GridSpacingY00
350
41D
  3
Grid/GridSpacingY01
350
41E
  3
Grid/GridSpacingY02
350
41F
  3
Grid/GridSpacingY03
350
420
  3
Grid/IsometricGrid00
350
421
  3
Grid/IsometricGrid01
350
422
  3
Grid/IsometricGrid02
350
423
  3
Grid/IsometricGrid03
350
424
  3
Grid/IsometricProjection00
350
425
  3
Grid/IsometricProjection01
350
426
  3
Grid/IsometricProjection02
350
427
  3
Grid/IsometricProjection03
350
428
  3
Grid/MetaGridSpacingX00
350
429
  3
Grid/MetaGridSpacingX01
350
42A
  3
Grid/MetaGridSpacingX02
350
42B
  3
Grid/MetaGridSpacingX03
350
42C
  3
Grid/MetaGridSpacingY00
350
42D
  3
Grid/MetaGridSpacingY01
350
42E
  3
Grid/MetaGridSpacingY02
350
42F
  3
Grid/MetaGridSpacingY03
350
430
  3
MultiPageSettings/Columns
350
431
  3
MultiPageSettings/GlueMarginsBottom
350
432
  3
MultiPageSettings/GlueMarginsLeft
350
433
  3
MultiPageSettings/GlueMarginsRight
350
434
  3
MultiPageSettings/GlueMarginsTop
350
435
  3
MultiPageSettings/PrintCropMarks
350
436
  3
MultiPageSettings/Rows
350
437
  3
PageSettings/OffsetX
350
438
  3
PageSettings/OffsetY
350
439
  3
PageSettings/PageOrientation
350
43A
  3
PageSettings/PaperHeight
350
43B
  3
PageSettings/PaperWidth
350
43C
  3
PageSettings/Scale
350
43D
  3
PageSettings/ShowPaperBorders
350
43E
  3
UnitSettings/PaperUnit
350
43F
  0
LAYOUT
  5
3C7
102
{ACAD_REACTORS
330
3C3
102
}
330
3C3
100
AcDbPlotSettings
  1

  2
none_device
  4

  6

 40
0.0
 41
0.0
 42
0.0
 43
0.0
 44
0.0
 45
0.0
 46
0.0
 47
0.0
 48
0.0
 49
0.0
140
0.0
141
0.0
142
1.0
143
1.0
 70
   688
 72
     0
 73
     0
 74
     5
  7

 75
    16
 76
     0
 77
     2
 78
   300
147
1.0
148
0.0
149
0.0
100
AcDbLayout
  1
Layout1
 70
     1
 71
     1
 10
0.0
 20
0.0
 11
210.0
 21
297.0
 12
0.0
 22
0.0
 32
0.0
 14
1.000000000000000E+20
 24
1.000000000000000E+20
 34
1.000000000000000E+20
 15
-1.000000000000000E+20
 25
-1.000000000000000E+20
 35
-1.000000000000000E+20
146
0.0
 13
0.0
 23
0.0
 33
0.0
 16
1.0
 26
0.0
 36
0.0
 17
0.0
 27
1.0
 37
0.0
 76
     0
330
3C4
  0
LAYOUT
  5
3CF
102
{ACAD_REACTORS
330
3C3
102
}
330
3C3
100
AcDbPlotSettings
  1

  2
none_device
  4

  6

 40
0.0
 41
0.0
 42
0.0
 43
0.0
 44
0.0
 45
0.0
 46
0.0
 47
0.0
 48
0.0
 49
0.0
140
0.0
141
0.0
142
1.0
143
1.0
 70
   688
 72
     0
 73
     0
 74
     5
  7

 75
    16
 76
     0
 77
     2
 78
   300
147
1.0
148
0.0
149
0.0
100
AcDbLayout
  1
Layout2
 70
     1
 71
     2
 10
0.0
 20
0.0
 11
0.0
 21
0.0
 12
0.0
 22
0.0
 32
0.0
 14
0.0
 24
0.0
 34
0.0
 15
0.0
 25
0.0
 35
0.0
146
0.0
 13
0.0
 23
0.0
 33
0.0
 16
1.0
 26
0.0
 36
0.0
 17
0.0
 27
1.0
 37
0.0
 76
     0
330
3CC
  0
LAYOUT
  5
3CB
102
{ACAD_REACTORS
330
3C3
102
}
330
3C3
100
AcDbPlotSettings
  1

  2
none_device
  4
Letter_(8.50_x_11.00_Inches)
  6

 40
6.35
 41
6.35
 42
6.35000508
 43
6.35000508
 44
215.9
 45
279.4
 46
0.0
 47
0.0
 48
0.0
 49
0.0
140
0.0
141
0.0
142
1.0
143
1.0
 70
  1712
 72
     0
 73
     0
 74
     0
  7

 75
     0
 76
     0
 77
     2
 78
   300
147
1.0
148
0.0
149
0.0
100
AcDbLayout
  1
Model
 70
     1
 71
     0
 10
0.0
 20
0.0
 11
12.0
 21
9.0
 12
0.0
 22
0.0
 32
0.0
 14
1.000000000000000E+20
 24
1.000000000000000E+20
 34
1.000000000000000E+20
 15
-1.000000000000000E+20
 25
-1.000000000000000E+20
 35
-1.000000000000000E+20
146
0.0
 13
0.0
 23
0.0
 33
0.0
 16
1.0
 26
0.0
 36
0.0
 17
0.0
 27
1.0
 37
0.0
 76
     0
330
3C8
331
3D2
  0
MATERIAL
  5
3EE
102
{ACAD_REACTORS
330
3EC
102
}
330
3EC
100
AcDbMaterial
  1
ByBlock
 72
     1
 94
      127
  0
MATERIAL
  5
3ED
102
{ACAD_REACTORS
330
3EC
102
}
330
3EC
100
AcDbMaterial
  1
ByLayer
 72
     1
 94
      127
  0
MATERIAL
  5
3EF
102
{ACAD_REACTORS
330
3EC
102
}
330
3EC
100
AcDbMaterial
  1
Global
 72
     1
 94
      127
  0
MLINESTYLE
  5
3C1
102
{ACAD_REACTORS
330
3C0
102
}
330
3C0
100
AcDbMlineStyle
  2
Standard
 70
     0
  3

 62
   256
 51
90.0
 52
90.0
 71
     2
 49
0.5
 62
   256
  6
BYLAYER
 49
-0.5
 62
   256
  6
BYLAYER
  0
ACDBPLACEHOLDER
  5
3B9
102
{ACAD_REACTORS
330
3B8
102
}
330
3B8
  0
SCALE
  5
3F1
102
{ACAD_REACTORS
330
3F0
102
}
330
3F0
100
AcDbScale
 70
     0
300
1:1
140
1.0
141
1.0
290
     1
  0
SCALE
  5
3F2
102
{ACAD_REACTORS
330
3F0
102
}
330
3F0
100
AcDbScale
 70
     0
300
1:2
140
1.0
141
2.0
290
     0
  0
SCALE
  5
3F3
102
{ACAD_REACTORS
330
3F0
102
}
330
3F0
100
AcDbScale
 70
     0
300
1:4
140
1.0
141
4.0
290
     0
  0
SCALE
  5
3F4
102
{ACAD_REACTORS
330
3F0
102
}
330
3F0
100
AcDbScale
 70
     0
300
1:5
140
1.0
141
5.0
290
     0
  0
SCALE
  5
3F5
102
{ACAD_REACTORS
330
3F0
102
}
330
3F0
100
AcDbScale
 70
     0
300
1:8
140
1.0
141
8.0
290
     0
  0
SCALE
  5
3F6
102
{ACAD_REACTORS
330
3F0
102
}
330
3F0
100
AcDbScale
 70
     0
300
1:10
140
1.0
141
10.0
290
     0
  0
SCALE
  5
3F7
102
{ACAD_REACTORS
330
3F0
102
}
330
3F0
100
AcDbScale
 70
     0
300
1:16
140
1.0
141
16.0
290
     0
  0
SCALE
  5
3F8
102
{ACAD_REACTORS
330
3F0
102
}
330
3F0
100
AcDbScale
 70
     0
300
1:20
140
1.0
141
20.0
290
     0
  0
SCALE
  5
3F9
102
{ACAD_REACTORS
330
3F0
102
}
330
3F0
100
AcDbScale
 70
     0
300
1:30
140
1.0
141
30.0
290
     0
  0
SCALE
  5
3FA
102
{ACAD_REACTORS
330
3F0
102
}
330
3F0
100
AcDbScale
 70
     0
300
1:40
140
1.0
141
40.0
290
     0
  0
SCALE
  5
3FB
102
{ACAD_REACTORS
330
3F0
102
}
330
3F0
100
AcDbScale
 70
     0
300
1:50
140
1.0
141
50.0
290
     0
  0
SCALE
  5
3FC
102
{ACAD_REACTORS
330
3F0
102
}
330
3F0
100
AcDbScale
 70
     0
300
1:100
140
1.0
141
100.0
290
     0
  0
SCALE
  5
3FD
102
{ACAD_REACTORS
330
3F0
102
}
330
3F0
100
AcDbScale
 70
     0
300
2:1
140
2.0
141
1.0
290
     0
  0
SCALE
  5
3FE
102
{ACAD_REACTORS
330
3F0
102
}
330
3F0
100
AcDbScale
 70
     0
300
4:1
140
4.0
141
1.0
290
     0
  0
SCALE
  5
3FF
102
{ACAD_REACTORS
330
3F0
102
}
330
3F0
100
AcDbScale
 70
     0
300
8:1
140
8.0
141
1.0
290
     0
  0
SCALE
  5
400
102
{ACAD_REACTORS
330
3F0
102
}
330
3F0
100
AcDbScale
 70
     0
300
10:1
140
10.0
141
1.0
290
     0
  0
SCALE
  5
401
102
{ACAD_REACTORS
330
3F0
102
}
330
3F0
100
AcDbScale
 70
     0
300
100:1
140
100.0
141
1.0
290
     0
  0
SCALE
  5
402
102
{ACAD_REACTORS
330
3F0
102
}
330
3F0
100
AcDbScale
 70
     0
300
1/128" = 1'-0"
140
0.0078125
141
12.0
290
     0
  0
SCALE
  5
403
102
{ACAD_REACTORS
330
3F0
102
}
330
3F0
100
AcDbScale
 70
     0
300
1/64" = 1'-0"
140
0.015625
141
12.0
290
     0
  0
SCALE
  5
404
102
{ACAD_REACTORS
330
3F0
102
}
330
3F0
100
AcDbScale
 70
     0
300
1/32" = 1'-0"
140
0.03125
141
12.0
290
     0
  0
SCALE
  5
405
102
{ACAD_REACTORS
330
3F0
102
}
330
3F0
100
AcDbScale
 70
     0
300
1/16" = 1'-0"
140
0.0625
141
12.0
290
     0
  0
SCALE
  5
406
102
{ACAD_REACTORS
330
3F0
102
}
330
3F0
100
AcDbScale
 70
     0
300
3/32" = 1'-0"
140
0.09375
141
12.0
290
     0
  0
SCALE
  5
407
102
{ACAD_REACTORS
330
3F0
102
}
330
3F0
100
AcDbScale
 70
     0
300
1/8" = 1'-0"
140
0.125
141
12.0
290
     0
  0
SCALE
  5
408
102
{ACAD_REACTORS
330
3F0
102
}
330
3F0
100
AcDbScale
 70
     0
300
3/16" = 1'-0"
140
0.1875
141
12.0
290
     0
  0
SCALE
  5
409
102
{ACAD_REACTORS
330
3F0
102
}
330
3F0
100
AcDbScale
 70
     0
300
1/4" = 1'-0"
140
0.25
141
12.0
290
     0
  0
SCALE
  5
40A
102
{ACAD_REACTORS
330
3F0
102
}
330
3F0
100
AcDbScale
 70
     0
300
3/8" = 1'-0"
140
0.375
141
12.0
290
     0
  0
SCALE
  5
40B
102
{ACAD_REACTORS
330
3F0
102
}
330
3F0
100
AcDbScale
 70
     0
300
1/2" = 1'-0"
140
0.5
141
12.0
290
     0
  0
SCALE
  5
40C
102
{ACAD_REACTORS
330
3F0
102
}
330
3F0
100
AcDbScale
 70
     0
300
3/4" = 1'-0"
140
0.75
141
12.0
290
     0
  0
SCALE
  5
40D
102
{ACAD_REACTORS
330
3F0
102
}
330
3F0
100
AcDbScale
 70
     0
300
1" = 1'-0"
140
1.0
141
12.0
290
     0
  0
SCALE
  5
40E
102
{ACAD_REACTORS
330
3F0
102
}
330
3F0
100
AcDbScale
 70
     0
300
1-1/2" = 1'-0"
140
1.5
141
12.0
290
     0
  0
SCALE
  5
40F
102
{ACAD_REACTORS
330
3F0
102
}
330
3F0
100
AcDbScale
 70
     0
300
3" = 1'-0"
140
3.0
141
12.0
290
     0
  0
SCALE
  5
410
102
{ACAD_REACTORS
330
3F0
102
}
330
3F0
100
AcDbScale
 70
     0
300
6" = 1'-0"
140
6.0
141
12.0
290
     0
  0
SCALE
  5
411
102
{ACAD_REACTORS
330
3F0
102
}
330
3F0
100
AcDbScale
 70
     0
300
1'-0" = 1'-0"
140
12.0
141
12.0
290
     0
  0
VISUALSTYLE
  5
3D8
102
{ACAD_REACTORS
330
3D3
102
}
330
3D3
100
AcDbVisualStyle
  2
2dWireframe
 70
     4
177
     3
291
     0
 70
    58
 90
        0
176
     1
 90
        2
176
     1
 90
        0
176
     1
 90
        0
176
     1
 40
0.6
176
     1
 40
30.0
176
     1
 62
     7
420
 16777215
176
     1
 90
        1
176
     1
 90
        4
176
     1
 62
     7
176
     1
 62
   257
176
     1
 90
        1
176
     1
 90
        1
176
     1
 40
1.0
176
     1
 90
        0
176
     1
 62
   257
176
     1
 40
1.0
176
     1
 90
        1
176
     1
 90
        6
176
     1
 90
        2
176
     1
 62
     7
176
     1
 90
        5
176
     1
 90
        0
176
     1
 90
        0
176
     1
290
     0
176
     1
 90
        1
176
     1
 40
0.0
176
     1
 90
        0
176
     1
290
     1
176
     1
290
     1
176
     1
290
     0
176
     1
290
     0
176
     1
290
     0
176
     1
290
     0
176
     1
290
     0
176
     1
290
     0
176
     1
290
     0
176
     1
 90
       50
176
     1
 40
0.0
176
     1
 40
1.0
176
     1
 90
        0
176
     1
 62
    18
420
        0
176
     1
 90
       50
176
     1
 90
        3
176
     1
 62
     5
420
      255
176
     1
290
     0
176
     1
 90
       50
176
     1
 90
       50
176
     1
 90
       50
176
     1
290
     0
176
     1
 90
       50
176
     1
 62
   256
176
     0
 40
1.0
176
     0
 90
        2
176
     1
  1
strokes_ogs.tif
176
     1
290
     0
176
     1
 40
1.0
176
     1
 40
1.0
176
     1
  0
VISUALSTYLE
  5
3DB
102
{ACAD_REACTORS
330
3D3
102
}
330
3D3
100
AcDbVisualStyle
  2
Basic
 70
     7
177
     3
291
     1
 70
    58
 90
        1
176
     1
 90
        0
176
     1
 90
        1
176
     1
 90
        0
176
     1
 40
0.6
176
     1
 40
30.0
176
     1
 62
     7
420
 16777215
176
     1
 90
        0
176
     1
 90
        4
176
     1
 62
     7
176
     1
 62
   257
176
     1
 90
        1
176
     1
 90
        1
176
     1
 40
1.0
176
     1
 90
        8
176
     1
 62
     7
176
     1
 40
1.0
176
     1
 90
        1
176
     1
 90
        6
176
     1
 90
        2
176
     1
 62
     7
176
     1
 90
        5
176
     1
 90
        0
176
     1
 90
        0
176
     1
290
     0
176
     1
 90
        1
176
     1
 40
0.0
176
     1
 90
        0
176
     1
290
     0
176
     1
290
     1
176
     1
290
     1
176
     1
290
     0
176
     1
290
     0
176
     1
290
     0
176
     1
290
     0
176
     1
290
     0
176
     1
290
     0
176
     1
 90
       50
176
     1
 40
0.0
176
     1
 40
1.0
176
     1
 90
        0
176
     1
 62
    18
420
        0
176
     1
 90
       50
176
     1
 90
        3
176
     1
 62
     5
420
      255
176
     1
290
     0
176
     1
 90
       50
176
     1
 90
       50
176
     1
 90
       50
176
     1
290
     0
176
     1
 90
       50
176
     1
 62
   256
176
     0
 40
1.0
176
     0
 90
        2
176
     1
  1
strokes_ogs.tif
176
     1
290
     0
176
     1
 40
1.0
176
     1
 40
1.0
176
     1
  0
VISUALSTYLE
  5
3DF
102
{ACAD_REACTORS
330
3D3
102
}
330
3D3
100
AcDbVisualStyle
  2
Brighten
 70
    12
177
     3
291
     1
 70
    58
 90
        2
176
     1
 90
        2
176
     1
 90
        0
176
     1
 90
        0
176
     1
 40
0.6
176
     1
 40
30.0
176
     1
 62
     7
420
 16777215
176
     1
 90
        1
176
     1
 90
        4
176
     1
 62
     7
176
     1
 62
   257
176
     1
 90
        1
176
     1
 90
        1
176
     1
 40
1.0
176
     1
 90
        8
176
     1
 62
     7
176
     1
 40
1.0
176
     1
 90
        1
176
     1
 90
        6
176
     1
 90
        2
176
     1
 62
     7
176
     1
 90
        5
176
     1
 90
        0
176
     1
 90
        0
176
     1
290
     0
176
     1
 90
        1
176
     1
 40
50.0
176
     1
 90
        0
176
     1
290
     0
176
     1
290
     1
176
     1
290
     1
176
     1
290
     0
176
     1
290
     0
176
     1
290
     0
176
     1
290
     0
176
     1
290
     0
176
     1
290
     0
176
     1
 90
       50
176
     1
 40
0.0
176
     1
 40
1.0
176
     1
 90
        0
176
     1
 62
    18
420
        0
176
     1
 90
       50
176
     1
 90
        3
176
     1
 62
     5
420
      255
176
     1
290
     0
176
     1
 90
       50
176
     1
 90
       50
176
     1
 90
       50
176
     1
290
     0
176
     1
 90
       50
176
     1
 62
   256
176
     0
 40
1.0
176
     0
 90
        2
176
     1
  1
strokes_ogs.tif
176
     1
290
     0
176
     1
 40
1.0
176
     1
 40
1.0
176
     1
  0
VISUALSTYLE
  5
3E3
102
{ACAD_REACTORS
330
3D3
102
}
330
3D3
100
AcDbVisualStyle
  2
ColorChange
 70
    16
177
     3
291
     1
 70
    58
 90
        2
176
     1
 90
        2
176
     1
 90
        3
176
     1
 90
        0
176
     1
 40
0.6
176
     1
 40
30.0
176
     1
 62
     8
420
  8421504
176
     1
 90
        1
176
     1
 90
        4
176
     1
 62
     7
176
     1
 62
   257
176
     1
 90
        1
176
     1
 90
        1
176
     1
 40
1.0
176
     1
 90
        8
176
     1
 62
     8
420
  8421504
176
     1
 40
1.0
176
     1
 90
        1
176
     1
 90
        6
176
     1
 90
        2
176
     1
 62
     7
176
     1
 90
        5
176
     1
 90
        0
176
     1
 90
        0
176
     1
290
     0
176
     1
 90
        1
176
     1
 40
0.0
176
     1
 90
        0
176
     1
290
     0
176
     1
290
     1
176
     1
290
     1
176
     1
290
     0
176
     1
290
     0
176
     1
290
     0
176
     1
290
     0
176
     1
290
     0
176
     1
290
     0
176
     1
 90
       50
176
     1
 40
0.0
176
     1
 40
1.0
176
     1
 90
        0
176
     1
 62
    18
420
        0
176
     1
 90
       50
176
     1
 90
        3
176
     1
 62
     5
420
      255
176
     1
290
     0
176
     1
 90
       50
176
     1
 90
       50
176
     1
 90
       50
176
     1
290
     0
176
     1
 90
       50
176
     1
 62
   256
176
     0
 40
1.0
176
     0
 90
        2
176
     1
  1
strokes_ogs.tif
176
     1
290
     0
176
     1
 40
1.0
176
     1
 40
1.0
176
     1
  0
VISUALSTYLE
  5
3DD
102
{ACAD_REACTORS
330
3D3
102
}
330
3D3
100
AcDbVisualStyle
  2
Conceptual
 70
     9
177
     3
291
     0
 70
    58
 90
        3
176
     1
 90
        2
176
     1
 90
        0
176
     1
 90
        0
176
     1
 40
0.6
176
     1
 40
30.0
176
     1
 62
     7
420
 16777215
176
     1
 90
        2
176
     1
 90
        2
176
     1
 62
     7
176
     1
 62
   257
176
     1
 90
        1
176
     1
 90
        1
176
     1
 40
179.0
176
     1
 90
        8
176
     1
 62
     7
176
     1
 40
1.0
176
     1
 90
        1
176
     1
 90
        6
176
     1
 90
        2
176
     1
 62
     7
176
     1
 90
        3
176
     1
 90
        0
176
     1
 90
        0
176
     1
290
     0
176
     1
 90
        1
176
     1
 40
0.0
176
     1
 90
        0
176
     1
290
     0
176
     1
290
     1
176
     1
290
     1
176
     1
290
     0
176
     1
290
     0
176
     1
290
     0
176
     1
290
     0
176
     1
290
     0
176
     1
290
     0
176
     1
 90
       50
176
     1
 40
0.0
176
     1
 40
1.0
176
     1
 90
        0
176
     1
 62
    18
420
        0
176
     1
 90
       50
176
     1
 90
        3
176
     1
 62
     5
420
      255
176
     1
290
     0
176
     1
 90
       50
176
     1
 90
       50
176
     1
 90
       50
176
     1
290
     0
176
     1
 90
       50
176
     1
 62
   256
176
     0
 40
1.0
176
     0
 90
        2
176
     1
  1
strokes_ogs.tif
176
     1
290
     0
176
     1
 40
1.0
176
     1
 40
1.0
176
     1
  0
VISUALSTYLE
  5
3DE
102
{ACAD_REACTORS
330
3D3
102
}
330
3D3
100
AcDbVisualStyle
  2
Dim
 70
    11
177
     3
291
     1
 70
    58
 90
        2
176
     1
 90
        2
176
     1
 90
        0
176
     1
 90
        0
176
     1
 40
0.6
176
     1
 40
30.0
176
     1
 62
     7
420
 16777215
176
     1
 90
        1
176
     1
 90
        4
176
     1
 62
     7
176
     1
 62
   257
176
     1
 90
        1
176
     1
 90
        1
176
     1
 40
1.0
176
     1
 90
        8
176
     1
 62
     7
176
     1
 40
1.0
176
     1
 90
        1
176
     1
 90
        6
176
     1
 90
        2
176
     1
 62
     7
176
     1
 90
        5
176
     1
 90
        0
176
     1
 90
        0
176
     1
290
     0
176
     1
 90
        1
176
     1
 40
-50.0
176
     1
 90
        0
176
     1
290
     0
176
     1
290
     1
176
     1
290
     1
176
     1
290
     0
176
     1
290
     0
176
     1
290
     0
176
     1
290
     0
176
     1
290
     0
176
     1
290
     0
176
     1
 90
       50
176
     1
 40
0.0
176
     1
 40
1.0
176
     1
 90
        0
176
     1
 62
    18
420
        0
176
     1
 90
       50
176
     1
 90
        3
176
     1
 62
     5
420
      255
176
     1
290
     0
176
     1
 90
       50
176
     1
 90
       50
176
     1
 90
       50
176
     1
290
     0
176
     1
 90
       50
176
     1
 62
   256
176
     0
 40
1.0
176
     0
 90
        2
176
     1
  1
strokes_ogs.tif
176
     1
290
     0
176
     1
 40
1.0
176
     1
 40
1.0
176
     1
  0
VISUALSTYLE
  5
3E6
102
{ACAD_REACTORS
330
3D3
102
}
330
3D3
100
AcDbVisualStyle
  2
EdgeColorOff
 70
    22
177
     3
291
     1
 70
    58
 90
        2
176
     0
 90
        2
176
     0
 90
        0
176
     0
 90
        0
176
     0
 40
0.6
176
     0
 40
30.0
176
     0
 62
     7
420
 16777215
176
     0
 90
        1
176
     0
 90
        4
176
     0
 62
     7
176
     0
 62
   257
176
     0
 90
        1
176
     0
 90
        1
176
     0
 40
1.0
176
     0
 90
        8
176
     2
 62
     7
176
     0
 40
1.0
176
     0
 90
        1
176
     0
 90
        6
176
     0
 90
        2
176
     0
 62
     7
176
     0
 90
        5
176
     0
 90
        0
176
     0
 90
        0
176
     0
290
     0
176
     0
 90
        1
176
     0
 40
0.0
176
     0
 90
        0
176
     0
290
     0
176
     0
290
     1
176
     0
290
     1
176
     0
290
     0
176
     0
290
     0
176
     0
290
     0
176
     0
290
     0
176
     0
290
     0
176
     0
290
     0
176
     0
 90
       50
176
     0
 40
0.0
176
     0
 40
1.0
176
     0
 90
        0
176
     0
 62
    18
420
        0
176
     0
 90
       50
176
     0
 90
        3
176
     0
 62
     5
420
      255
176
     0
290
     0
176
     0
 90
       50
176
     0
 90
       50
176
     0
 90
       50
176
     0
290
     0
176
     0
 90
       50
176
     0
 62
   256
176
     0
 40
1.0
176
     0
 90
        2
176
     0
  1
strokes_ogs.tif
176
     0
290
     0
176
     0
 40
1.0
176
     0
 40
1.0
176
     0
  0
VISUALSTYLE
  5
3E2
102
{ACAD_REACTORS
330
3D3
102
}
330
3D3
100
AcDbVisualStyle
  2
Facepattern
 70
    15
177
     3
291
     1
 70
    58
 90
        2
176
     1
 90
        2
176
     1
 90
        0
176
     1
 90
        0
176
     1
 40
0.6
176
     1
 40
30.0
176
     1
 62
     7
420
 16777215
176
     1
 90
        1
176
     1
 90
        4
176
     1
 62
     7
176
     1
 62
   257
176
     1
 90
        1
176
     1
 90
        1
176
     1
 40
1.0
176
     1
 90
        8
176
     1
 62
     7
176
     1
 40
1.0
176
     1
 90
        1
176
     1
 90
        6
176
     1
 90
        2
176
     1
 62
     7
176
     1
 90
        5
176
     1
 90
        0
176
     1
 90
        0
176
     1
290
     0
176
     1
 90
        1
176
     1
 40
0.0
176
     1
 90
        0
176
     1
290
     0
176
     1
290
     1
176
     1
290
     1
176
     1
290
     0
176
     1
290
     0
176
     1
290
     0
176
     1
290
     0
176
     1
290
     0
176
     1
290
     0
176
     1
 90
       50
176
     1
 40
0.0
176
     1
 40
1.0
176
     1
 90
        0
176
     1
 62
    18
420
        0
176
     1
 90
       50
176
     1
 90
        3
176
     1
 62
     5
420
      255
176
     1
290
     0
176
     1
 90
       50
176
     1
 90
       50
176
     1
 90
       50
176
     1
290
     0
176
     1
 90
       50
176
     1
 62
   256
176
     0
 40
1.0
176
     0
 90
        2
176
     1
  1
strokes_ogs.tif
176
     1
290
     0
176
     1
 40
1.0
176
     1
 40
1.0
176
     1
  0
VISUALSTYLE
  5
3D4
102
{ACAD_REACTORS
330
3D3
102
}
330
3D3
100
AcDbVisualStyle
  2
Flat
 70
     0
177
     3
291
     1
 70
    58
 90
        2
176
     1
 90
        1
176
     1
 90
        1
176
     1
 90
        2
176
     1
 40
0.6
176
     1
 40
30.0
176
     1
 62
     7
420
 16777215
176
     1
 90
        0
176
     1
 90
        0
176
     1
 62
     7
176
     1
 62
   257
176
     1
 90
        1
176
     1
 90
        1
176
     1
 40
1.0
176
     1
 90
        8
176
     1
 62
     7
176
     1
 40
1.0
176
     1
 90
        1
176
     1
 90
        6
176
     1
 90
        2
176
     1
 62
     7
176
     1
 90
        5
176
     1
 90
        0
176
     1
 90
        0
176
     1
290
     0
176
     1
 90
       13
176
     1
 40
0.0
176
     1
 90
        0
176
     1
290
     0
176
     1
290
     1
176
     1
290
     1
176
     1
290
     0
176
     1
290
     0
176
     1
290
     0
176
     1
290
     0
176
     1
290
     0
176
     1
290
     0
176
     1
 90
       50
176
     1
 40
0.0
176
     1
 40
1.0
176
     1
 90
        0
176
     1
 62
    18
420
        0
176
     1
 90
       50
176
     1
 90
        3
176
     1
 62
     5
420
      255
176
     1
290
     0
176
     1
 90
       50
176
     1
 90
       50
176
     1
 90
       50
176
     1
290
     0
176
     1
 90
       50
176
     1
 62
   256
176
     0
 40
1.0
176
     0
 90
        2
176
     1
  1
strokes_ogs.tif
176
     1
290
     0
176
     1
 40
1.0
176
     1
 40
1.0
176
     1
  0
VISUALSTYLE
  5
3D5
102
{ACAD_REACTORS
330
3D3
102
}
330
3D3
100
AcDbVisualStyle
  2
FlatWithEdges
 70
     1
177
     3
291
     1
 70
    58
 90
        2
176
     1
 90
        1
176
     1
 90
        1
176
     1
 90
        2
176
     1
 40
0.6
176
     1
 40
30.0
176
     1
 62
     7
420
 16777215
176
     1
 90
        1
176
     1
 90
        0
176
     1
 62
     7
176
     1
 62
   257
176
     1
 90
        1
176
     1
 90
        1
176
     1
 40
1.0
176
     1
 90
        0
176
     1
 62
   257
176
     1
 40
1.0
176
     1
 90
        1
176
     1
 90
        6
176
     1
 90
        2
176
     1
 62
     7
176
     1
 90
        5
176
     1
 90
        0
176
     1
 90
        0
176
     1
290
     0
176
     1
 90
       13
176
     1
 40
0.0
176
     1
 90
        0
176
     1
290
     0
176
     1
290
     1
176
     1
290
     1
176
     1
290
     0
176
     1
290
     0
176
     1
290
     0
176
     1
290
     0
176
     1
290
     0
176
     1
290
     0
176
     1
 90
       50
176
     1
 40
0.0
176
     1
 40
1.0
176
     1
 90
        0
176
     1
 62
    18
420
        0
176
     1
 90
       50
176
     1
 90
        3
176
     1
 62
     5
420
      255
176
     1
290
     0
176
     1
 90
       50
176
     1
 90
       50
176
     1
 90
       50
176
     1
290
     0
176
     1
 90
       50
176
     1
 62
   256
176
     0
 40
1.0
176
     0
 90
        2
176
     1
  1
strokes_ogs.tif
176
     1
290
     0
176
     1
 40
1.0
176
     1
 40
1.0
176
     1
  0
VISUALSTYLE
  5
3D6
102
{ACAD_REACTORS
330
3D3
102
}
330
3D3
100
AcDbVisualStyle
  2
Gouraud
 70
     2
177
     3
291
     1
 70
    58
 90
        2
176
     1
 90
        2
176
     1
 90
        1
176
     1
 90
        2
176
     1
 40
0.6
176
     1
 40
30.0
176
     1
 62
     7
420
 16777215
176
     1
 90
        0
176
     1
 90
        0
176
     1
 62
     7
176
     1
 62
   257
176
     1
 90
        1
176
     1
 90
        1
176
     1
 40
1.0
176
     1
 90
        0
176
     1
 62
     7
176
     1
 40
1.0
176
     1
 90
        1
176
     1
 90
        6
176
     1
 90
        2
176
     1
 62
     7
176
     1
 90
        5
176
     1
 90
        0
176
     1
 90
        0
176
     1
290
     0
176
     1
 90
       13
176
     1
 40
0.0
176
     1
 90
        0
176
     1
290
     0
176
     1
290
     1
176
     1
290
     1
176
     1
290
     0
176
     1
290
     0
176
     1
290
     0
176
     1
290
     0
176
     1
290
     0
176
     1
290
     0
176
     1
 90
       50
176
     1
 40
0.0
176
     1
 40
1.0
176
     1
 90
        0
176
     1
 62
    18
420
        0
176
     1
 90
       50
176
     1
 90
        3
176
     1
 62
     5
420
      255
176
     1
290
     0
176
     1
 90
       50
176
     1
 90
       50
176
     1
 90
       50
176
     1
290
     0
176
     1
 90
       50
176
     1
 62
   256
176
     0
 40
1.0
176
     0
 90
        2
176
     1
  1
strokes_ogs.tif
176
     1
290
     0
176
     1
 40
1.0
176
     1
 40
1.0
176
     1
  0
VISUALSTYLE
  5
3D7
102
{ACAD_REACTORS
330
3D3
102
}
330
3D3
100
AcDbVisualStyle
  2
GouraudWithEdges
 70
     3
177
     3
291
     1
 70
    58
 90
        2
176
     1
 90
        2
176
     1
 90
        1
176
     1
 90
        2
176
     1
 40
0.6
176
     1
 40
30.0
176
     1
 62
     7
420
 16777215
176
     1
 90
        1
176
     1
 90
        0
176
     1
 62
     7
176
     1
 62
   257
176
     1
 90
        1
176
     1
 90
        1
176
     1
 40
1.0
176
     1
 90
        0
176
     1
 62
   257
176
     1
 40
1.0
176
     1
 90
        1
176
     1
 90
        6
176
     1
 90
        2
176
     1
 62
     7
176
     1
 90
        5
176
     1
 90
        0
176
     1
 90
        0
176
     1
290
     0
176
     1
 90
       13
176
     1
 40
0.0
176
     1
 90
        0
176
     1
290
     0
176
     1
290
     1
176
     1
290
     1
176
     1
290
     0
176
     1
290
     0
176
     1
290
     0
176
     1
290
     0
176
     1
290
     0
176
     1
290
     0
176
     1
 90
       50
176
     1
 40
0.0
176
     1
 40
1.0
176
     1
 90
        0
176
     1
 62
    18
420
        0
176
     1
 90
       50
176
     1
 90
        3
176
     1
 62
     5
420
      255
176
     1
290
     0
176
     1
 90
       50
176
     1
 90
       50
176
     1
 90
       50
176
     1
290
     0
176
     1
 90
       50
176
     1
 62
   256
176
     0
 40
1.0
176
     0
 90
        2
176
     1
  1
strokes_ogs.tif
176
     1
290
     0
176
     1
 40
1.0
176
     1
 40
1.0
176
     1
  0
VISUALSTYLE
  5
3DA
102
{ACAD_REACTORS
330
3D3
102
}
330
3D3
100
AcDbVisualStyle
  2
Hidden
 70
     6
177
     3
291
     0
 70
    58
 90
        1
176
     1
 90
        2
176
     1
 90
        2
176
     1
 90
        0
176
     1
 40
0.6
176
     1
 40
30.0
176
     1
 62
     7
420
 16777215
176
     1
 90
        2
176
     1
 90
        2
176
     1
 62
     7
176
     1
 62
   257
176
     1
 90
        2
176
     1
 90
        1
176
     1
 40
40.0
176
     1
 90
        0
176
     1
 62
   257
176
     1
 40
1.0
176
     1
 90
        1
176
     1
 90
        6
176
     1
 90
        2
176
     1
 62
     7
176
     1
 90
        3
176
     1
 90
        0
176
     1
 90
        0
176
     1
290
     0
176
     1
 90
        1
176
     1
 40
0.0
176
     1
 90
        0
176
     1
290
     0
176
     1
290
     1
176
     1
290
     1
176
     1
290
     0
176
     1
290
     0
176
     1
290
     0
176
     1
290
     0
176
     1
290
     0
176
     1
290
     0
176
     1
 90
       50
176
     1
 40
0.0
176
     1
 40
1.0
176
     1
 90
        0
176
     1
 62
    18
420
        0
176
     1
 90
       50
176
     1
 90
        3
176
     1
 62
     5
420
      255
176
     1
290
     0
176
     1
 90
       50
176
     1
 90
       50
176
     1
 90
       50
176
     1
290
     0
176
     1
 90
       50
176
     1
 62
   256
176
     0
 40
1.0
176
     0
 90
        2
176
     1
  1
strokes_ogs.tif
176
     1
290
     0
176
     1
 40
1.0
176
     1
 40
1.0
176
     1
  0
VISUALSTYLE
  5
3E4
102
{ACAD_REACTORS
330
3D3
102
}
330
3D3
100
AcDbVisualStyle
  2
JitterOff
 70
    20
177
     3
291
     1
 70
    58
 90
        2
176
     0
 90
        2
176
     0
 90
        0
176
     0
 90
        0
176
     0
 40
0.6
176
     0
 40
30.0
176
     0
 62
     7
420
 16777215
176
     0
 90
        1
176
     0
 90
        4
176
     0
 62
     7
176
     0
 62
   257
176
     0
 90
        1
176
     0
 90
        1
176
     0
 40
1.0
176
     0
 90
       10
176
     2
 62
     7
176
     0
 40
1.0
176
     0
 90
        1
176
     0
 90
        6
176
     0
 90
        2
176
     0
 62
     7
176
     0
 90
        5
176
     0
 90
        0
176
     0
 90
        0
176
     0
290
     0
176
     0
 90
        1
176
     0
 40
0.0
176
     0
 90
        0
176
     0
290
     0
176
     0
290
     1
176
     0
290
     1
176
     0
290
     0
176
     0
290
     0
176
     0
290
     0
176
     0
290
     0
176
     0
290
     0
176
     0
290
     0
176
     0
 90
       50
176
     0
 40
0.0
176
     0
 40
1.0
176
     0
 90
        0
176
     0
 62
    18
420
        0
176
     0
 90
       50
176
     0
 90
        3
176
     0
 62
     5
420
      255
176
     0
290
     0
176
     0
 90
       50
176
     0
 90
       50
176
     0
 90
       50
176
     0
290
     0
176
     0
 90
       50
176
     0
 62
   256
176
     0
 40
1.0
176
     0
 90
        2
176
     0
  1
strokes_ogs.tif
176
     0
290
     0
176
     0
 40
1.0
176
     0
 40
1.0
176
     0
  0
VISUALSTYLE
  5
3E1
102
{ACAD_REACTORS
330
3D3
102
}
330
3D3
100
AcDbVisualStyle
  2
Linepattern
 70
    14
177
     3
291
     1
 70
    58
 90
        2
176
     1
 90
        2
176
     1
 90
        0
176
     1
 90
        0
176
     1
 40
0.6
176
     1
 40
30.0
176
     1
 62
     7
420
 16777215
176
     1
 90
        1
176
     1
 90
        4
176
     1
 62
     7
176
     1
 62
   257
176
     1
 90
        7
176
     1
 90
        7
176
     1
 40
1.0
176
     1
 90
        8
176
     1
 62
     7
176
     1
 40
1.0
176
     1
 90
        1
176
     1
 90
        6
176
     1
 90
        2
176
     1
 62
     7
176
     1
 90
        5
176
     1
 90
        0
176
     1
 90
        0
176
     1
290
     0
176
     1
 90
        1
176
     1
 40
0.0
176
     1
 90
        0
176
     1
290
     0
176
     1
290
     1
176
     1
290
     1
176
     1
290
     0
176
     1
290
     0
176
     1
290
     0
176
     1
290
     0
176
     1
290
     0
176
     1
290
     0
176
     1
 90
       50
176
     1
 40
0.0
176
     1
 40
1.0
176
     1
 90
        0
176
     1
 62
    18
420
        0
176
     1
 90
       50
176
     1
 90
        3
176
     1
 62
     5
420
      255
176
     1
290
     0
176
     1
 90
       50
176
     1
 90
       50
176
     1
 90
       50
176
     1
290
     0
176
     1
 90
       50
176
     1
 62
   256
176
     0
 40
1.0
176
     0
 90
        2
176
     1
  1
strokes_ogs.tif
176
     1
290
     0
176
     1
 40
1.0
176
     1
 40
1.0
176
     1
  0
VISUALSTYLE
  5
3E5
102
{ACAD_REACTORS
330
3D3
102
}
330
3D3
100
AcDbVisualStyle
  2
OverhangOff
 70
    21
177
     3
291
     1
 70
    58
 90
        2
176
     0
 90
        2
176
     0
 90
        0
176
     0
 90
        0
176
     0
 40
0.6
176
     0
 40
30.0
176
     0
 62
     7
420
 16777215
176
     0
 90
        1
176
     0
 90
        4
176
     0
 62
     7
176
     0
 62
   257
176
     0
 90
        1
176
     0
 90
        1
176
     0
 40
1.0
176
     0
 90
        9
176
     2
 62
     7
176
     0
 40
1.0
176
     0
 90
        1
176
     0
 90
        6
176
     0
 90
        2
176
     0
 62
     7
176
     0
 90
        5
176
     0
 90
        0
176
     0
 90
        0
176
     0
290
     0
176
     0
 90
        1
176
     0
 40
0.0
176
     0
 90
        0
176
     0
290
     0
176
     0
290
     1
176
     0
290
     1
176
     0
290
     0
176
     0
290
     0
176
     0
290
     0
176
     0
290
     0
176
     0
290
     0
176
     0
290
     0
176
     0
 90
       50
176
     0
 40
0.0
176
     0
 40
1.0
176
     0
 90
        0
176
     0
 62
    18
420
        0
176
     0
 90
       50
176
     0
 90
        3
176
     0
 62
     5
420
      255
176
     0
290
     0
176
     0
 90
       50
176
     0
 90
       50
176
     0
 90
       50
176
     0
290
     0
176
     0
 90
       50
176
     0
 62
   256
176
     0
 40
1.0
176
     0
 90
        2
176
     0
  1
strokes_ogs.tif
176
     0
290
     0
176
     0
 40
1.0
176
     0
 40
1.0
176
     0
  0
VISUALSTYLE
  5
3DC
102
{ACAD_REACTORS
330
3D3
102
}
330
3D3
100
AcDbVisualStyle
  2
Realistic
 70
     8
177
     3
291
     0
 70
    58
 90
        2
176
     1
 90
        3
176
     1
 90
        0
176
     1
 90
        2
176
     1
 40
0.6
176
     1
 40
30.0
176
     1
 62
     7
420
 16777215
176
     1
 90
        0
176
     1
 90
        0
176
     1
 62
     7
176
     1
 62
   257
176
     1
 90
        1
176
     1
 90
        1
176
     1
 40
1.0
176
     1
 90
        8
176
     1
 62
   257
176
     1
 40
1.0
176
     1
 90
        1
176
     1
 90
        6
176
     1
 90
        2
176
     1
 62
     7
176
     1
 90
        3
176
     1
 90
        0
176
     1
 90
        0
176
     1
290
     0
176
     1
 90
       13
176
     1
 40
0.0
176
     1
 90
        0
176
     1
290
     0
176
     1
290
     1
176
     1
290
     1
176
     1
290
     0
176
     1
290
     0
176
     1
290
     0
176
     1
290
     0
176
     1
290
     0
176
     1
290
     0
176
     1
 90
       50
176
     1
 40
0.0
176
     1
 40
1.0
176
     1
 90
        0
176
     1
 62
    18
420
        0
176
     1
 90
       50
176
     1
 90
        3
176
     1
 62
     5
420
      255
176
     1
290
     0
176
     1
 90
       50
176
     1
 90
       50
176
     1
 90
       50
176
     1
290
     0
176
     1
 90
       50
176
     1
 62
   256
176
     0
 40
1.0
176
     0
 90
        2
176
     1
  1
strokes_ogs.tif
176
     1
290
     0
176
     1
 40
1.0
176
     1
 40
1.0
176
     1
  0
VISUALSTYLE
  5
3EB
102
{ACAD_REACTORS
330
3D3
102
}
330
3D3
100
AcDbVisualStyle
  2
Shaded
 70
    27
177
     3
291
     0
 70
    58
 90
        2
176
     1
 90
        2
176
     1
 90
        1
176
     1
 90
        2
176
     1
 40
0.6
176
     1
 40
30.0
176
     1
 62
     7
420
 16777215
176
     1
 90
        0
176
     1
 90
        4
176
     1
 62
     7
176
     1
 62
   257
176
     1
 90
        1
176
     1
 90
        1
176
     1
 40
1.0
176
     1
 90
        8
176
     1
 62
   257
176
     1
 40
1.0
176
     1
 90
        1
176
     1
 90
        6
176
     1
 90
        2
176
     1
 62
     8
420
  7895160
176
     1
 90
        3
176
     1
 90
        0
176
     1
 90
        0
176
     1
290
     0
176
     1
 90
        5
176
     1
 40
0.0
176
     1
 90
        0
176
     1
290
     0
176
     1
290
     1
176
     1
290
     1
176
     1
290
     0
176
     1
290
     0
176
     1
290
     0
176
     1
290
     0
176
     1
290
     0
176
     1
290
     0
176
     1
 90
       50
176
     1
 40
0.0
176
     1
 40
1.0
176
     1
 90
        0
176
     1
 62
    18
420
        0
176
     1
 90
       50
176
     1
 90
        3
176
     1
 62
     5
420
      255
176
     1
290
     0
176
     1
 90
       50
176
     1
 90
       50
176
     1
 90
       50
176
     1
290
     0
176
     1
 90
       50
176
     1
 62
   256
176
     0
 40
1.0
176
     0
 90
        2
176
     1
  1
strokes_ogs.tif
176
     1
290
     0
176
     1
 40
1.0
176
     1
 40
1.0
176
     1
  0
VISUALSTYLE
  5
3EA
102
{ACAD_REACTORS
330
3D3
102
}
330
3D3
100
AcDbVisualStyle
  2
Shaded with edges
 70
    26
177
     3
291
     0
 70
    58
 90
        2
176
     1
 90
        2
176
     1
 90
        1
176
     1
 90
        2
176
     1
 40
0.6
176
     1
 40
30.0
176
     1
 62
     7
420
 16777215
176
     1
 90
        1
176
     1
 90
       10
176
     1
 62
     7
176
     1
 62
   257
176
     1
 90
        2
176
     1
 90
        1
176
     1
 40
1.0
176
     1
 90
        8
176
     1
 62
   257
176
     1
 40
1.0
176
     1
 90
        1
176
     1
 90
        6
176
     1
 90
        2
176
     1
 62
     7
176
     1
 90
        3
176
     1
 90
        0
176
     1
 90
        0
176
     1
290
     0
176
     1
 90
        5
176
     1
 40
0.0
176
     1
 90
        0
176
     1
290
     0
176
     1
290
     1
176
     1
290
     1
176
     1
290
     0
176
     1
290
     0
176
     1
290
     0
176
     1
290
     0
176
     1
290
     0
176
     1
290
     0
176
     1
 90
       50
176
     1
 40
0.0
176
     1
 40
1.0
176
     1
 90
        0
176
     1
 62
    18
420
        0
176
     1
 90
       50
176
     1
 90
        3
176
     1
 62
     5
420
      255
176
     1
290
     0
176
     1
 90
       50
176
     1
 90
       50
176
     1
 90
       50
176
     1
290
     0
176
     1
 90
       50
176
     1
 62
   256
176
     0
 40
1.0
176
     0
 90
        2
176
     1
  1
strokes_ogs.tif
176
     1
290
     0
176
     1
 40
1.0
176
     1
 40
1.0
176
     1
  0
VISUALSTYLE
  5
3E7
102
{ACAD_REACTORS
330
3D3
102
}
330
3D3
100
AcDbVisualStyle
  2
Shades of Gray
 70
    23
177
     3
291
     0
 70
    58
 90
        2
176
     1
 90
        2
176
     1
 90
        3
176
     1
 90
        0
176
     1
 40
0.6
176
     1
 40
30.0
176
     1
 62
     7
420
 16777215
176
     1
 90
        2
176
     1
 90
        2
176
     1
 62
     7
176
     1
 62
     7
176
     1
 90
        1
176
     1
 90
        1
176
     1
 40
40.0
176
     1
 90
        8
176
     1
 62
     7
176
     1
 40
1.0
176
     1
 90
        1
176
     1
 90
        6
176
     1
 90
        2
176
     1
 62
     7
176
     1
 90
        3
176
     1
 90
        0
176
     1
 90
        0
176
     1
290
     0
176
     1
 90
        1
176
     1
 40
0.0
176
     1
 90
        0
176
     1
290
     0
176
     1
290
     1
176
     1
290
     1
176
     1
290
     0
176
     1
290
     0
176
     1
290
     0
176
     1
290
     0
176
     1
290
     0
176
     1
290
     0
176
     1
 90
       50
176
     1
 40
0.0
176
     1
 40
1.0
176
     1
 90
        0
176
     1
 62
    18
420
        0
176
     1
 90
       50
176
     1
 90
        3
176
     1
 62
     5
420
      255
176
     1
290
     0
176
     1
 90
       50
176
     1
 90
       50
176
     1
 90
       50
176
     1
290
     0
176
     1
 90
       50
176
     1
 62
   256
176
     0
 40
1.0
176
     0
 90
        2
176
     1
  1
strokes_ogs.tif
176
     1
290
     0
176
     1
 40
1.0
176
     1
 40
1.0
176
     1
  0
VISUALSTYLE
  5
3E8
102
{ACAD_REACTORS
330
3D3
102
}
330
3D3
100
AcDbVisualStyle
  2
Sketchy
 70
    24
177
     3
291
     0
 70
    58
 90
        1
176
     1
 90
        2
176
     1
 90
        2
176
     1
 90
        0
176
     1
 40
0.6
176
     1
 40
30.0
176
     1
 62
     7
420
 16777215
176
     1
 90
        2
176
     1
 90
        2
176
     1
 62
     7
176
     1
 62
     7
176
     1
 90
        1
176
     1
 90
        1
176
     1
 40
40.0
176
     1
 90
       11
176
     1
 62
     7
176
     1
 40
1.0
176
     1
 90
        1
176
     1
 90
        6
176
     1
 90
        2
176
     1
 62
     7
176
     1
 90
        6
176
     1
 90
        0
176
     1
 90
        0
176
     1
290
     0
176
     1
 90
        1
176
     1
 40
0.0
176
     1
 90
        0
176
     1
290
     0
176
     1
290
     1
176
     1
290
     1
176
     1
290
     0
176
     1
290
     0
176
     1
290
     0
176
     1
290
     0
176
     1
290
     0
176
     1
290
     0
176
     1
 90
       50
176
     1
 40
0.0
176
     1
 40
1.0
176
     1
 90
        0
176
     1
 62
    18
420
        0
176
     1
 90
       50
176
     1
 90
        3
176
     1
 62
     5
420
      255
176
     1
290
     0
176
     1
 90
       50
176
     1
 90
       50
176
     1
 90
       50
176
     1
290
     0
176
     1
 90
       50
176
     1
 62
   256
176
     0
 40
1.0
176
     0
 90
        2
176
     1
  1
strokes_ogs.tif
176
     1
290
     0
176
     1
 40
1.0
176
     1
 40
1.0
176
     1
  0
VISUALSTYLE
  5
3E0
102
{ACAD_REACTORS
330
3D3
102
}
330
3D3
100
AcDbVisualStyle
  2
Thicken
 70
    13
177
     3
291
     1
 70
    58
 90
        2
176
     1
 90
        2
176
     1
 90
        0
176
     1
 90
        0
176
     1
 40
0.6
176
     1
 40
30.0
176
     1
 62
     7
420
 16777215
176
     1
 90
        1
176
     1
 90
        4
176
     1
 62
     7
176
     1
 62
   257
176
     1
 90
        1
176
     1
 90
        1
176
     1
 40
1.0
176
     1
 90
       12
176
     1
 62
     7
176
     1
 40
1.0
176
     1
 90
        1
176
     1
 90
        6
176
     1
 90
        2
176
     1
 62
     7
176
     1
 90
        5
176
     1
 90
        0
176
     1
 90
        0
176
     1
290
     0
176
     1
 90
        1
176
     1
 40
0.0
176
     1
 90
        0
176
     1
290
     0
176
     1
290
     1
176
     1
290
     1
176
     1
290
     0
176
     1
290
     0
176
     1
290
     0
176
     1
290
     0
176
     1
290
     0
176
     1
290
     0
176
     1
 90
       50
176
     1
 40
0.0
176
     1
 40
1.0
176
     1
 90
        0
176
     1
 62
    18
420
        0
176
     1
 90
       50
176
     1
 90
        3
176
     1
 62
     5
420
      255
176
     1
290
     0
176
     1
 90
       50
176
     1
 90
       50
176
     1
 90
       50
176
     1
290
     0
176
     1
 90
       50
176
     1
 62
   256
176
     0
 40
1.0
176
     0
 90
        2
176
     1
  1
strokes_ogs.tif
176
     1
290
     0
176
     1
 40
1.0
176
     1
 40
1.0
176
     1
  0
VISUALSTYLE
  5
3D9
102
{ACAD_REACTORS
330
3D3
102
}
330
3D3
100
AcDbVisualStyle
  2
Wireframe
 70
     5
177
     3
291
     0
 70
    58
 90
        0
176
     1
 90
        2
176
     1
 90
        0
176
     1
 90
        0
176
     1
 40
0.6
176
     1
 40
30.0
176
     1
 62
     7
420
 16777215
176
     1
 90
        1
176
     1
 90
        4
176
     1
 62
     7
176
     1
 62
   257
176
     1
 90
        1
176
     1
 90
        1
176
     1
 40
1.0
176
     1
 90
        0
176
     1
 62
   257
176
     1
 40
1.0
176
     1
 90
        1
176
     1
 90
        6
176
     1
 90
        2
176
     1
 62
     7
176
     1
 90
        3
176
     1
 90
        0
176
     1
 90
        0
176
     1
290
     0
176
     1
 90
        1
176
     1
 40
0.0
176
     1
 90
        0
176
     1
290
     0
176
     1
290
     1
176
     1
290
     1
176
     1
290
     0
176
     1
290
     0
176
     1
290
     0
176
     1
290
     0
176
     1
290
     0
176
     1
290
     0
176
     1
 90
       50
176
     1
 40
0.0
176
     1
 40
1.0
176
     1
 90
        0
176
     1
 62
    18
420
        0
176
     1
 90
       50
176
     1
 90
        3
176
     1
 62
     5
420
      255
176
     1
290
     0
176
     1
 90
       50
176
     1
 90
       50
176
     1
 90
       50
176
     1
290
     0
176
     1
 90
       50
176
     1
 62
   256
176
     0
 40
1.0
176
     0
 90
        2
176
     1
  1
strokes_ogs.tif
176
     1
290
     0
176
     1
 40
1.0
176
     1
 40
1.0
176
     1
  0
VISUALSTYLE
  5
3E9
102
{ACAD_REACTORS
330
3D3
102
}
330
3D3
100
AcDbVisualStyle
  2
X-Ray
 70
    25
177
     3
291
     0
 70
    58
 90
        2
176
     1
 90
        2
176
     1
 90
        1
176
     1
 90
        1
176
     1
 40
0.5
176
     1
 40
30.0
176
     1
 62
     7
420
 16777215
176
     1
 90
        1
176
     1
 90
        0
176
     1
 62
     7
176
     1
 62
   257
176
     1
 90
        1
176
     1
 90
        1
176
     1
 40
1.0
176
     1
 90
        8
176
     1
 62
     7
176
     1
 40
1.0
176
     1
 90
        1
176
     1
 90
        6
176
     1
 90
        2
176
     1
 62
     7
176
     1
 90
        3
176
     1
 90
        0
176
     1
 90
        0
176
     1
290
     0
176
     1
 90
       13
176
     1
 40
0.0
176
     1
 90
        0
176
     1
290
     0
176
     1
290
     1
176
     1
290
     1
176
     1
290
     0
176
     1
290
     0
176
     1
290
     0
176
     1
290
     0
176
     1
290
     0
176
     1
290
     0
176
     1
 90
       50
176
     1
 40
0.0
176
     1
 40
1.0
176
     1
 90
        0
176
     1
 62
    18
420
        0
176
     1
 90
       50
176
     1
 90
        3
176
     1
 62
     5
420
      255
176
     1
290
     0
176
     1
 90
       50
176
     1
 90
       50
176
     1
 90
       50
176
     1
290
     0
176
     1
 90
       50
176
     1
 62
   256
176
     0
 40
1.0
176
     0
 90
        2
176
     1
  1
strokes_ogs.tif
176
     1
290
     0
176
     1
 40
1.0
176
     1
 40
1.0
176
     1
  0
DICTIONARYVAR
  5
4CE
102
{ACAD_REACTORS
330
4CD
102
}
330
4CD
100
DictionaryVariables
280
     0
  1
1:1
  0
XRECORD
  5
415
102
{ACAD_REACTORS
330
414
102
}
330
414
100
AcDbXrecord
280
     1
290
     1
  0
XRECORD
  5
416
102
{ACAD_REACTORS
330
414
102
}
330
414
100
AcDbXrecord
280
     1
290
     1
  0
XRECORD
  5
417
102
{ACAD_REACTORS
330
414
102
}
330
414
100
AcDbXrecord
280
     1
290
     1
  0
XRECORD
  5
418
102
{ACAD_REACTORS
330
414
102
}
330
414
100
AcDbXrecord
280
     1
290
     1
  0
XRECORD
  5
419
102
{ACAD_REACTORS
330
414
102
}
330
414
100
AcDbXrecord
280
     1
1000
auto
  0
XRECORD
  5
41A
102
{ACAD_REACTORS
330
414
102
}
330
414
100
AcDbXrecord
280
     1
1000
auto
  0
XRECORD
  5
41B
102
{ACAD_REACTORS
330
414
102
}
330
414
100
AcDbXrecord
280
     1
1000
auto
  0
XRECORD
  5
41C
102
{ACAD_REACTORS
330
414
102
}
330
414
100
AcDbXrecord
280
     1
1000
auto
  0
XRECORD
  5
41D
102
{ACAD_REACTORS
330
414
102
}
330
414
100
AcDbXrecord
280
     1
1000
auto
  0
XRECORD
  5
41E
102
{ACAD_REACTORS
330
414
102
}
330
414
100
AcDbXrecord
280
     1
1000
auto
  0
XRECORD
  5
41F
102
{ACAD_REACTORS
330
414
102
}
330
414
100
AcDbXrecord
280
     1
1000
auto
  0
XRECORD
  5
420
102
{ACAD_REACTORS
330
414
102
}
330
414
100
AcDbXrecord
280
     1
1000
auto
  0
XRECORD
  5
421
102
{ACAD_REACTORS
330
414
102
}
330
414
100
AcDbXrecord
280
     1
290
     0
  0
XRECORD
  5
422
102
{ACAD_REACTORS
330
414
102
}
330
414
100
AcDbXrecord
280
     1
290
     0
  0
XRECORD
  5
423
102
{ACAD_REACTORS
330
414
102
}
330
414
100
AcDbXrecord
280
     1
290
     0
  0
XRECORD
  5
424
102
{ACAD_REACTORS
330
414
102
}
330
414
100
AcDbXrecord
280
     1
290
     0
  0
XRECORD
  5
425
102
{ACAD_REACTORS
330
414
102
}
330
414
100
AcDbXrecord
280
     1
 90
        0
  0
XRECORD
  5
426
102
{ACAD_REACTORS
330
414
102
}
330
414
100
AcDbXrecord
280
     1
 90
        0
  0
XRECORD
  5
427
102
{ACAD_REACTORS
330
414
102
}
330
414
100
AcDbXrecord
280
     1
 90
        0
  0
XRECORD
  5
428
102
{ACAD_REACTORS
330
414
102
}
330
414
100
AcDbXrecord
280
     1
 90
        0
  0
XRECORD
  5
429
102
{ACAD_REACTORS
330
414
102
}
330
414
100
AcDbXrecord
280
     1
1000
auto
  0
XRECORD
  5
42A
102
{ACAD_REACTORS
330
414
102
}
330
414
100
AcDbXrecord
280
     1
1000
auto
  0
XRECORD
  5
42B
102
{ACAD_REACTORS
330
414
102
}
330
414
100
AcDbXrecord
280
     1
1000
auto
  0
XRECORD
  5
42C
102
{ACAD_REACTORS
330
414
102
}
330
414
100
AcDbXrecord
280
     1
1000
auto
  0
XRECORD
  5
42D
102
{ACAD_REACTORS
330
414
102
}
330
414
100
AcDbXrecord
280
     1
1000
auto
  0
XRECORD
  5
42E
102
{ACAD_REACTORS
330
414
102
}
330
414
100
AcDbXrecord
280
     1
1000
auto
  0
XRECORD
  5
42F
102
{ACAD_REACTORS
330
414
102
}
330
414
100
AcDbXrecord
280
     1
1000
auto
  0
XRECORD
  5
430
102
{ACAD_REACTORS
330
414
102
}
330
414
100
AcDbXrecord
280
     1
1000
auto
  0
XRECORD
  5
431
102
{ACAD_REACTORS
330
414
102
}
330
414
100
AcDbXrecord
280
     1
 90
        1
  0
XRECORD
  5
432
102
{ACAD_REACTORS
330
414
102
}
330
414
100
AcDbXrecord
280
     1
 40
10.0
  0
XRECORD
  5
433
102
{ACAD_REACTORS
330
414
102
}
330
414
100
AcDbXrecord
280
     1
 40
10.0
  0
XRECORD
  5
434
102
{ACAD_REACTORS
330
414
102
}
330
414
100
AcDbXrecord
280
     1
 40
10.0
  0
XRECORD
  5
435
102
{ACAD_REACTORS
330
414
102
}
330
414
100
AcDbXrecord
280
     1
 40
10.0
  0
XRECORD
  5
436
102
{ACAD_REACTORS
330
414
102
}
330
414
100
AcDbXrecord
280
     1
290
     0
  0
XRECORD
  5
437
102
{ACAD_REACTORS
330
414
102
}
330
414
100
AcDbXrecord
280
     1
 90
        1
  0
XRECORD
  5
438
102
{ACAD_REACTORS
330
414
102
}
330
414
100
AcDbXrecord
280
     1
 40
0.0
  0
XRECORD
  5
439
102
{ACAD_REACTORS
330
414
102
}
330
414
100
AcDbXrecord
280
     1
 40
0.0
  0
XRECORD
  5
43A
102
{ACAD_REACTORS
330
414
102
}
330
414
100
AcDbXrecord
280
     1
1000
Portrait
  0
XRECORD
  5
43B
102
{ACAD_REACTORS
330
414
102
}
330
414
100
AcDbXrecord
280
     1
 40
297.0
  0
XRECORD
  5
43C
102
{ACAD_REACTORS
330
414
102
}
330
414
100
AcDbXrecord
280
     1
 40
210.0
  0
XRECORD
  5
43D
102
{ACAD_REACTORS
330
414
102
}
330
414
100
AcDbXrecord
280
     1
1000
1:1
  0
XRECORD
  5
43E
102
{ACAD_REACTORS
330
414
102
}
330
414
100
AcDbXrecord
280
     1
290
     1
  0
XRECORD
  5
43F
102
{ACAD_REACTORS
330
414
102
}
330
414
100
AcDbXrecord
280
     1
 90
        4
  0
ENDSEC
  0
EOF
