999
dxflib 2.0.4.8
  0
SECTION
  2
HEADER
  9
$ACADVER
  1
AC1015
  9
$HANDSEED
  5
FFFF
  9
$DIMASZ
 40
2.5
  9
$DIMGAP
 40
0.625
  9
$DIMEXO
 40
0.625
  9
$INSUNITS
 70
4
  9
$DIMTXT
 40
2.5
  9
$DIMSTYLE
  2
Standard
  9
$PLIMMAX
 10
210.0
 20
297.0
  9
$PLIMMIN
 10
0.0
 20
0.0
  9
$DIMEXE
 40
1.25
  9
$PINSBASE
 10
16.993288590604024
 20
224.75906040268458
 30
0.0
  0
ENDSEC
  0
SECTION
  2
TABLES
  0
TABLE
  2
VPORT
  5
8
100
AcDbSymbolTable
 70
1
  0
VPORT
  5
30
100
AcDbSymbolTableRecord
100
AcDbViewportTableRecord
  2
*Active
 70
0
 10
0.0
 20
0.0
 11
1.0
 21
1.0
 12
286.30555555555549
 22
148.5
 13
0.0
 23
0.0
 14
10.0
 24
10.0
 15
10.0
 25
10.0
 16
0.0
 26
0.0
 36
1.0
 17
0.0
 27
0.0
 37
0.0
 40
297.0
 41
1.92798353909465
 42
50.0
 43
0.0
 44
0.0
 50
0.0
 51
0.0
 71
0
 72
100
 73
1
 74
3
 75
1
 76
1
 77
0
 78
0
281
0
 65
1
110
0.0
120
0.0
130
0.0
111
1.0
121
0.0
131
0.0
112
0.0
122
1.0
132
0.0
 79
0
146
0.0
  0
ENDTAB
  0
TABLE
  2
LTYPE
  5
5
100
AcDbSymbolTable
 70
21
  0
LTYPE
  5
14
100
AcDbSymbolTableRecord
100
AcDbLinetypeTableRecord
  2
ByBlock
 70
0
  3

 72
65
 73
0
 40
0.0
  0
LTYPE
  5
15
100
AcDbSymbolTableRecord
100
AcDbLinetypeTableRecord
  2
ByLayer
 70
0
  3

 72
65
 73
0
 40
0.0
  0
LTYPE
  5
16
100
AcDbSymbolTableRecord
100
AcDbLinetypeTableRecord
  2
CONTINUOUS
 70
0
  3
Solid line
 72
65
 73
0
 40
0.0
  0
LTYPE
  5
31
100
AcDbSymbolTableRecord
100
AcDbLinetypeTableRecord
  2
DOT
 70
0
  3
Dot . . . . . . . . . . . . . . . . . . . . . .
 72
65
 73
2
 40
6.3499999999999996
 49
0.0
 74
0
 49
-6.3499999999999996
 74
0
  0
LTYPE
  5
32
100
AcDbSymbolTableRecord
100
AcDbLinetypeTableRecord
  2
DOT2
 70
0
  3
Dot (.5x) .....................................
 72
65
 73
2
 40
3.1749999999999998
 49
0.0
 74
0
 49
-3.1749999999999998
 74
0
  0
LTYPE
  5
33
100
AcDbSymbolTableRecord
100
AcDbLinetypeTableRecord
  2
DOTX2
 70
0
  3
Dot (2x) .  .  .  .  .  .  .  .  .  .  .  .  .
 72
65
 73
2
 40
12.699999999999999
 49
0.0
 74
0
 49
-12.699999999999999
 74
0
  0
LTYPE
  5
34
100
AcDbSymbolTableRecord
100
AcDbLinetypeTableRecord
  2
DASHED
 70
0
  3
Dashed __ __ __ __ __ __ __ __ __ __ __ __ __ _
 72
65
 73
2
 40
19.050000000000001
 49
12.699999999999999
 74
0
 49
-6.3499999999999996
 74
0
  0
LTYPE
  5
35
100
AcDbSymbolTableRecord
100
AcDbLinetypeTableRecord
  2
DASHED2
 70
0
  3
Dashed (.5x) _ _ _ _ _ _ _ _ _ _ _ _ _ _ _ _ _
 72
65
 73
2
 40
9.5250000000000004
 49
6.3499999999999996
 74
0
 49
-3.1749999999999998
 74
0
  0
LTYPE
  5
36
100
AcDbSymbolTableRecord
100
AcDbLinetypeTableRecord
  2
DASHEDX2
 70
0
  3
Dashed (2x) ____  ____  ____  ____  ____  ___
 72
65
 73
2
 40
38.100000000000001
 49
25.399999999999999
 74
0
 49
-12.699999999999999
 74
0
  0
LTYPE
  5
37
100
AcDbSymbolTableRecord
100
AcDbLinetypeTableRecord
  2
DASHDOT
 70
0
  3
Dash dot __ . __ . __ . __ . __ . __ . __ . __
 72
65
 73
4
 40
25.399999999999999
 49
12.699999999999999
 74
0
 49
-6.3499999999999996
 74
0
 49
0.0
 74
0
 49
-6.3499999999999996
 74
0
  0
LTYPE
  5
38
100
AcDbSymbolTableRecord
100
AcDbLinetypeTableRecord
  2
DASHDOT2
 70
0
  3
Dash dot (.5x) _._._._._._._._._._._._._._._.
 72
65
 73
4
 40
12.699999999999999
 49
6.3499999999999996
 74
0
 49
-3.1749999999999998
 74
0
 49
0.0
 74
0
 49
-3.1749999999999998
 74
0
  0
LTYPE
  5
39
100
AcDbSymbolTableRecord
100
AcDbLinetypeTableRecord
  2
DASHDOTX2
 70
0
  3
Dash dot (2x) ____  .  ____  .  ____  .  ___
 72
65
 73
4
 40
50.799999999999997
 49
25.399999999999999
 74
0
 49
-12.699999999999999
 74
0
 49
0.0
 74
0
 49
-12.699999999999999
 74
0
  0
LTYPE
  5
3A
100
AcDbSymbolTableRecord
100
AcDbLinetypeTableRecord
  2
DIVIDE
 70
0
  3
Divide ____ . . ____ . . ____ . . ____ . . ____
 72
65
 73
6
 40
31.75
 49
12.699999999999999
 74
0
 49
-6.3499999999999996
 74
0
 49
0.0
 74
0
 49
-6.3499999999999996
 74
0
 49
0.0
 74
0
 49
-6.3499999999999996
 74
0
  0
LTYPE
  5
3B
100
AcDbSymbolTableRecord
100
AcDbLinetypeTableRecord
  2
DIVIDE2
 70
0
  3
Divide (.5x) __..__..__..__..__..__..__..__.._
 72
65
 73
6
 40
15.875
 49
6.3499999999999996
 74
0
 49
-3.1749999999999998
 74
0
 49
0.0
 74
0
 49
-3.1749999999999998
 74
0
 49
0.0
 74
0
 49
-3.1749999999999998
 74
0
  0
LTYPE
  5
3C
100
AcDbSymbolTableRecord
100
AcDbLinetypeTableRecord
  2
DIVIDEX2
 70
0
  3
Divide (2x) ________  .  .  ________  .  .  _
 72
65
 73
6
 40
63.5
 49
25.399999999999999
 74
0
 49
-12.699999999999999
 74
0
 49
0.0
 74
0
 49
-12.699999999999999
 74
0
 49
0.0
 74
0
 49
-12.699999999999999
 74
0
  0
LTYPE
  5
3D
100
AcDbSymbolTableRecord
100
AcDbLinetypeTableRecord
  2
CENTER
 70
0
  3
Center ____ _ ____ _ ____ _ ____ _ ____ _ ____
 72
65
 73
4
 40
50.799999999999997
 49
31.75
 74
0
 49
-6.3499999999999996
 74
0
 49
6.3499999999999996
 74
0
 49
-6.3499999999999996
 74
0
  0
LTYPE
  5
3E
100
AcDbSymbolTableRecord
100
AcDbLinetypeTableRecord
  2
CENTER2
 70
0
  3
Center (.5x) ___ _ ___ _ ___ _ ___ _ ___ _ ___
 72
65
 73
4
 40
28.574999999999999
 49
19.050000000000001
 74
0
 49
-3.1749999999999998
 74
0
 49
3.1749999999999998
 74
0
 49
-3.1749999999999998
 74
0
  0
LTYPE
  5
3F
100
AcDbSymbolTableRecord
100
AcDbLinetypeTableRecord
  2
CENTERX2
 70
0
  3
Center (2x) ________  __  ________  __  _____
 72
65
 73
4
 40
101.59999999999999
 49
63.5
 74
0
 49
-12.699999999999999
 74
0
 49
12.699999999999999
 74
0
 49
-12.699999999999999
 74
0
  0
LTYPE
  5
40
100
AcDbSymbolTableRecord
100
AcDbLinetypeTableRecord
  2
BORDER
 70
0
  3
Border __ __ . __ __ . __ __ . __ __ . __ __ .
 72
65
 73
6
 40
44.450000000000003
 49
12.699999999999999
 74
0
 49
-6.3499999999999996
 74
0
 49
12.699999999999999
 74
0
 49
-6.3499999999999996
 74
0
 49
0.0
 74
0
 49
-6.3499999999999996
 74
0
  0
LTYPE
  5
41
100
AcDbSymbolTableRecord
100
AcDbLinetypeTableRecord
  2
BORDER2
 70
0
  3
Border (.5x) __.__.__.__.__.__.__.__.__.__.__.
 72
65
 73
6
 40
22.225000000000001
 49
6.3499999999999996
 74
0
 49
-3.1749999999999998
 74
0
 49
6.3499999999999996
 74
0
 49
-3.1749999999999998
 74
0
 49
0.0
 74
0
 49
-3.1749999999999998
 74
0
  0
LTYPE
  5
42
100
AcDbSymbolTableRecord
100
AcDbLinetypeTableRecord
  2
BORDERX2
 70
0
  3
Border (2x) ____  ____  .  ____  ____  .  ___
 72
65
 73
6
 40
88.900000000000006
 49
25.399999999999999
 74
0
 49
-12.699999999999999
 74
0
 49
25.399999999999999
 74
0
 49
-12.699999999999999
 74
0
 49
0.0
 74
0
 49
-12.699999999999999
 74
0
  0
ENDTAB
  0
TABLE
  2
LAYER
  5
2
100
AcDbSymbolTable
 70
5
  0
LAYER
  5
10
100
AcDbSymbolTableRecord
100
AcDbLayerTableRecord
  2
0
 70
0
 62
7
  6
CONTINUOUS
370
0
390
F
  0
LAYER
  5
43
100
AcDbSymbolTableRecord
100
AcDbLayerTableRecord
  2
Contours
 70
0
 62
7
  6
CONTINUOUS
370
0
390
F
  0
LAYER
  5
44
100
AcDbSymbolTableRecord
100
AcDbLayerTableRecord
  2
graduations
 70
0
 62
7
  6
CONTINUOUS
370
0
390
F
  0
LAYER
  5
45
100
AcDbSymbolTableRecord
100
AcDbLayerTableRecord
  2
textes
 70
0
 62
7
  6
CONTINUOUS
370
0
390
F
  0
LAYER
  5
46
100
AcDbSymbolTableRecord
100
AcDbLayerTableRecord
  2
Epures
 70
0
 62
7
  6
CONTINUOUS
370
0
390
F
  0
ENDTAB
  0
TABLE
  2
STYLE
  5
3
100
AcDbSymbolTable
 70
1
  0
STYLE
  5
11
100
AcDbSymbolTableRecord
100
AcDbTextStyleTableRecord
  2
Standard
 70
0
 40
0.0
 41
0.75
 50
0.0
 71
0
 42
2.5
  3
txt
  4

  0
ENDTAB
  0
TABLE
  2
VIEW
  5
6
100
AcDbSymbolTable
 70
0
  0
ENDTAB
  0
TABLE
  2
UCS
  5
7
100
AcDbSymbolTable
 70
0
  0
ENDTAB
  0
TABLE
  2
APPID
  5
9
100
AcDbSymbolTable
 70
1
  0
APPID
  5
12
100
AcDbSymbolTableRecord
100
AcDbRegAppTableRecord
  2
ACAD
 70
0
  0
ENDTAB
  0
TABLE
  2
DIMSTYLE
  5
A
100
AcDbSymbolTable
 70
1
100
AcDbDimStyleTable
 71
0
  0
DIMSTYLE
105
27
100
AcDbSymbolTableRecord
100
AcDbDimStyleTableRecord
  2
Standard
 41
2.5
 42
0.625
 43
3.75
 44
1.25
 70
0
 73
0
 74
0
 77
1
 78
8
140
2.5
141
2.5
143
0.03937007874016
147
0.625
171
3
172
1
271
2
272
2
274
3
278
44
283
0
284
8
340
11
  0
ENDTAB
  0
TABLE
  2
BLOCK_RECORD
  5
1
100
AcDbSymbolTable
 70
1
  0
BLOCK_RECORD
  5
1F
100
AcDbSymbolTableRecord
100
AcDbBlockTableRecord
  2
*Model_Space
340
22
  0
BLOCK_RECORD
  5
1B
100
AcDbSymbolTableRecord
100
AcDbBlockTableRecord
  2
*Paper_Space
340
1E
  0
BLOCK_RECORD
  5
23
100
AcDbSymbolTableRecord
100
AcDbBlockTableRecord
  2
*Paper_Space0
340
26
  0
ENDTAB
  0
ENDSEC
  0
SECTION
  2
BLOCKS
  0
BLOCK
  5
20
100
AcDbEntity
  8
0
100
AcDbBlockBegin
  2
*Model_Space
 70
0
 10
0.0
 20
0.0
 30
0.0
  3
*Model_Space
  1

  0
ENDBLK
  5
21
100
AcDbEntity
  8
0
100
AcDbBlockEnd
  0
BLOCK
  5
1C
100
AcDbEntity
 67
1
  8
0
100
AcDbBlockBegin
  2
*Paper_Space
 70
0
 10
0.0
 20
0.0
 30
0.0
  3
*Paper_Space
  1

  0
ENDBLK
  5
1D
100
AcDbEntity
 67
1
  8
0
100
AcDbBlockEnd
  0
BLOCK
  5
24
100
AcDbEntity
  8
0
100
AcDbBlockBegin
  2
*Paper_Space0
 70
0
 10
0.0
 20
0.0
 30
0.0
  3
*Paper_Space0
  1

  0
ENDBLK
  5
25
100
AcDbEntity
  8
0
100
AcDbBlockEnd
  0
ENDSEC
  0
SECTION
  2
ENTITIES
  0
LINE
  5
47
100
AcDbEntity
100
AcDbLine
  8
Contours
 62
256
370
-1
  6
ByLayer
 10
0.0
 20
0.0
 30
0.0
 11
80.0
 21
0.0
 31
0.0
  0
LINE
  5
48
100
AcDbEntity
100
AcDbLine
  8
Contours
 62
256
370
-1
  6
ByLayer
 10
80.0
 20
0.0
 30
0.0
 11
80.0
 21
50.0
 31
0.0
  0
LINE
  5
49
100
AcDbEntity
100
AcDbLine
  8
Contours
 62
256
370
-1
  6
ByLayer
 10
80.0
 20
50.0
 30
0.0
 11
0.0
 21
50.0
 31
0.0
  0
LINE
  5
4A
100
AcDbEntity
100
AcDbLine
  8
Contours
 62
256
370
-1
  6
ByLayer
 10
0.0
 20
50.0
 30
0.0
 11
0.0
 21
0.0
 31
0.0
  0
LINE
  5
4B
100
AcDbEntity
100
AcDbLine
  8
graduations
 62
256
370
-1
  6
ByLayer
 10
5.0
 20
0.25
 30
0.0
 11
10.0
 21
0.25
 31
0.0
  0
LINE
  5
4C
100
AcDbEntity
100
AcDbLine
  8
graduations
 62
256
370
-1
  6
ByLayer
 10
5.0
 20
0.25
 30
0.0
 11
5.0
 21
0.25
 31
0.0
  0
MTEXT
  5
4D
100
AcDbEntity
100
AcDbMText
  8
graduations
 62
256
370
-1
  6
ByLayer
 10
6.0
 20
2.2250000000000001
 30
0.0
 40
1.0
 41
100.0
 71
1
 72
2
  1
0.25
  7
standard
 50
0.0
 73
1
 44
1.0
  0
LINE
  5
4E
100
AcDbEntity
100
AcDbLine
  8
graduations
 62
256
370
-1
  6
ByLayer
 10
11.0
 20
0.5
 30
0.0
 11
16.0
 21
0.5
 31
0.0
  0
LINE
  5
4F
100
AcDbEntity
100
AcDbLine
  8
graduations
 62
256
370
-1
  6
ByLayer
 10
17.0
 20
0.75
 30
0.0
 11
22.0
 21
0.75
 31
0.0
  0
LINE
  5
50
100
AcDbEntity
100
AcDbLine
  8
graduations
 62
256
370
-1
  6
ByLayer
 10
23.0
 20
1.0
 30
0.0
 11
28.0
 21
1.0
 31
0.0
  0
LINE
  5
51
100
AcDbEntity
100
AcDbLine
  8
graduations
 62
256
370
-1
  6
ByLayer
 10
29.0
 20
1.25
 30
0.0
 11
34.0
 21
1.25
 31
0.0
  0
LINE
  5
52
100
AcDbEntity
100
AcDbLine
  8
graduations
 62
256
370
-1
  6
ByLayer
 10
35.0
 20
1.5
 30
0.0
 11
40.0
 21
1.5
 31
0.0
  0
LINE
  5
53
100
AcDbEntity
100
AcDbLine
  8
graduations
 62
256
370
-1
  6
ByLayer
 10
41.0
 20
1.75
 30
0.0
 11
46.0
 21
1.75
 31
0.0
  0
LINE
  5
54
100
AcDbEntity
100
AcDbLine
  8
graduations
 62
256
370
-1
  6
ByLayer
 10
47.0
 20
2.0
 30
0.0
 11
52.0
 21
2.0
 31
0.0
  0
LINE
  5
55
100
AcDbEntity
100
AcDbLine
  8
graduations
 62
256
370
-1
  6
ByLayer
 10
53.0
 20
2.25
 30
0.0
 11
58.0
 21
2.25
 31
0.0
  0
LINE
  5
56
100
AcDbEntity
100
AcDbLine
  8
graduations
 62
256
370
-1
  6
ByLayer
 10
59.0
 20
2.5
 30
0.0
 11
64.0
 21
2.5
 31
0.0
  0
LINE
  5
57
100
AcDbEntity
100
AcDbLine
  8
graduations
 62
256
370
-1
  6
ByLayer
 10
65.0
 20
2.75
 30
0.0
 11
70.0
 21
2.75
 31
0.0
  0
LINE
  5
58
100
AcDbEntity
100
AcDbLine
  8
graduations
 62
256
370
-1
  6
ByLayer
 10
71.0
 20
3.0
 30
0.0
 11
76.0
 21
3.0
 31
0.0
  0
MTEXT
  5
59
100
AcDbEntity
100
AcDbMText
  8
graduations
 62
256
370
-1
  6
ByLayer
 10
12.0
 20
2.4750000000000001
 30
0.0
 40
1.0
 41
100.0
 71
1
 72
2
  1
0.50
  7
standard
 50
0.0
 73
1
 44
1.0
  0
MTEXT
  5
5A
100
AcDbEntity
100
AcDbMText
  8
graduations
 62
256
370
-1
  6
ByLayer
 10
18.0
 20
2.7250000000000001
 30
0.0
 40
1.0
 41
100.0
 71
1
 72
2
  1
0.75
  7
standard
 50
0.0
 73
1
 44
1.0
  0
MTEXT
  5
5B
100
AcDbEntity
100
AcDbMText
  8
graduations
 62
256
370
-1
  6
ByLayer
 10
24.0
 20
2.9750000000000001
 30
0.0
 40
1.0
 41
100.0
 71
1
 72
2
  1
1.00
  7
standard
 50
0.0
 73
1
 44
1.0
  0
MTEXT
  5
5C
100
AcDbEntity
100
AcDbMText
  8
graduations
 62
256
370
-1
  6
ByLayer
 10
30.0
 20
3.2250000000000001
 30
0.0
 40
1.0
 41
100.0
 71
1
 72
2
  1
1.25
  7
standard
 50
0.0
 73
1
 44
1.0
  0
MTEXT
  5
5D
100
AcDbEntity
100
AcDbMText
  8
graduations
 62
256
370
-1
  6
ByLayer
 10
36.0
 20
3.4750000000000001
 30
0.0
 40
1.0
 41
100.0
 71
1
 72
2
  1
1.50
  7
standard
 50
0.0
 73
1
 44
1.0
  0
MTEXT
  5
5E
100
AcDbEntity
100
AcDbMText
  8
graduations
 62
256
370
-1
  6
ByLayer
 10
42.0
 20
3.7250000000000001
 30
0.0
 40
1.0
 41
100.0
 71
1
 72
2
  1
1.75
  7
standard
 50
0.0
 73
1
 44
1.0
  0
MTEXT
  5
5F
100
AcDbEntity
100
AcDbMText
  8
graduations
 62
256
370
-1
  6
ByLayer
 10
48.0
 20
3.9750000000000001
 30
0.0
 40
1.0
 41
100.0
 71
1
 72
2
  1
2.00
  7
standard
 50
0.0
 73
1
 44
1.0
  0
MTEXT
  5
60
100
AcDbEntity
100
AcDbMText
  8
graduations
 62
256
370
-1
  6
ByLayer
 10
54.0
 20
4.2249999999999996
 30
0.0
 40
1.0
 41
100.0
 71
1
 72
2
  1
2.25
  7
standard
 50
0.0
 73
1
 44
1.0
  0
MTEXT
  5
61
100
AcDbEntity
100
AcDbMText
  8
graduations
 62
256
370
-1
  6
ByLayer
 10
60.0
 20
4.4749999999999996
 30
0.0
 40
1.0
 41
100.0
 71
1
 72
2
  1
2.50
  7
standard
 50
0.0
 73
1
 44
1.0
  0
MTEXT
  5
62
100
AcDbEntity
100
AcDbMText
  8
graduations
 62
256
370
-1
  6
ByLayer
 10
66.0
 20
4.7249999999999996
 30
0.0
 40
1.0
 41
100.0
 71
1
 72
2
  1
2.75
  7
standard
 50
0.0
 73
1
 44
1.0
  0
MTEXT
  5
63
100
AcDbEntity
100
AcDbMText
  8
graduations
 62
256
370
-1
  6
ByLayer
 10
72.0
 20
4.9749999999999996
 30
0.0
 40
1.0
 41
100.0
 71
1
 72
2
  1
3.00
  7
standard
 50
0.0
 73
1
 44
1.0
  0
LINE
  5
64
100
AcDbEntity
100
AcDbLine
  8
graduations
 62
256
370
-1
  6
ByLayer
 10
5.0
 20
3.25
 30
0.0
 11
10.0
 21
3.25
 31
0.0
  0
LINE
  5
65
100
AcDbEntity
100
AcDbLine
  8
graduations
 62
256
370
-1
  6
ByLayer
 10
11.0
 20
3.5
 30
0.0
 11
16.0
 21
3.5
 31
0.0
  0
LINE
  5
66
100
AcDbEntity
100
AcDbLine
  8
graduations
 62
256
370
-1
  6
ByLayer
 10
17.0
 20
3.75
 30
0.0
 11
22.0
 21
3.75
 31
0.0
  0
LINE
  5
67
100
AcDbEntity
100
AcDbLine
  8
graduations
 62
256
370
-1
  6
ByLayer
 10
23.0
 20
4.0
 30
0.0
 11
28.0
 21
4.0
 31
0.0
  0
LINE
  5
68
100
AcDbEntity
100
AcDbLine
  8
graduations
 62
256
370
-1
  6
ByLayer
 10
29.0
 20
4.25
 30
0.0
 11
34.0
 21
4.25
 31
0.0
  0
MTEXT
  5
69
100
AcDbEntity
100
AcDbMText
  8
graduations
 62
256
370
-1
  6
ByLayer
 10
6.0
 20
5.2249999999999996
 30
0.0
 40
1.0
 41
100.0
 71
1
 72
2
  1
3.25
  7
standard
 50
0.0
 73
1
 44
1.0
  0
MTEXT
  5
6A
100
AcDbEntity
100
AcDbMText
  8
graduations
 62
256
370
-1
  6
ByLayer
 10
12.0
 20
5.4749999999999996
 30
0.0
 40
1.0
 41
100.0
 71
1
 72
2
  1
3.50
  7
standard
 50
0.0
 73
1
 44
1.0
  0
MTEXT
  5
6B
100
AcDbEntity
100
AcDbMText
  8
graduations
 62
256
370
-1
  6
ByLayer
 10
18.0
 20
5.7249999999999996
 30
0.0
 40
1.0
 41
100.0
 71
1
 72
2
  1
3.75
  7
standard
 50
0.0
 73
1
 44
1.0
  0
MTEXT
  5
6C
100
AcDbEntity
100
AcDbMText
  8
graduations
 62
256
370
-1
  6
ByLayer
 10
24.0
 20
5.9749999999999996
 30
0.0
 40
1.0
 41
100.0
 71
1
 72
2
  1
4.00
  7
standard
 50
0.0
 73
1
 44
1.0
  0
MTEXT
  5
6D
100
AcDbEntity
100
AcDbMText
  8
graduations
 62
256
370
-1
  6
ByLayer
 10
30.0
 20
6.2249999999999996
 30
0.0
 40
1.0
 41
100.0
 71
1
 72
2
  1
4.25
  7
standard
 50
0.0
 73
1
 44
1.0
  0
LINE
  5
6E
100
AcDbEntity
100
AcDbLine
  8
graduations
 62
256
370
-1
  6
ByLayer
 10
35.0
 20
4.5
 30
0.0
 11
40.0
 21
4.5
 31
0.0
  0
LINE
  5
6F
100
AcDbEntity
100
AcDbLine
  8
graduations
 62
256
370
-1
  6
ByLayer
 10
41.0
 20
4.75
 30
0.0
 11
46.0
 21
4.75
 31
0.0
  0
LINE
  5
70
100
AcDbEntity
100
AcDbLine
  8
graduations
 62
256
370
-1
  6
ByLayer
 10
47.0
 20
5.0
 30
0.0
 11
52.0
 21
5.0
 31
0.0
  0
LINE
  5
71
100
AcDbEntity
100
AcDbLine
  8
graduations
 62
256
370
-1
  6
ByLayer
 10
53.0
 20
5.25
 30
0.0
 11
58.0
 21
5.25
 31
0.0
  0
LINE
  5
72
100
AcDbEntity
100
AcDbLine
  8
graduations
 62
256
370
-1
  6
ByLayer
 10
59.0
 20
5.5
 30
0.0
 11
64.0
 21
5.5
 31
0.0
  0
LINE
  5
73
100
AcDbEntity
100
AcDbLine
  8
graduations
 62
256
370
-1
  6
ByLayer
 10
65.0
 20
5.75
 30
0.0
 11
70.0
 21
5.75
 31
0.0
  0
LINE
  5
74
100
AcDbEntity
100
AcDbLine
  8
graduations
 62
256
370
-1
  6
ByLayer
 10
71.0
 20
6.0
 30
0.0
 11
76.0
 21
6.0
 31
0.0
  0
MTEXT
  5
75
100
AcDbEntity
100
AcDbMText
  8
graduations
 62
256
370
-1
  6
ByLayer
 10
36.0
 20
6.4749999999999996
 30
0.0
 40
1.0
 41
100.0
 71
1
 72
2
  1
4.50
  7
standard
 50
0.0
 73
1
 44
1.0
  0
MTEXT
  5
76
100
AcDbEntity
100
AcDbMText
  8
graduations
 62
256
370
-1
  6
ByLayer
 10
42.0
 20
6.7249999999999996
 30
0.0
 40
1.0
 41
100.0
 71
1
 72
2
  1
4.75\P
  7
standard
 50
0.0
 73
1
 44
1.0
  0
MTEXT
  5
77
100
AcDbEntity
100
AcDbMText
  8
graduations
 62
256
370
-1
  6
ByLayer
 10
48.0
 20
6.9749999999999996
 30
0.0
 40
1.0
 41
100.0
 71
1
 72
2
  1
5.00
  7
standard
 50
0.0
 73
1
 44
1.0
  0
MTEXT
  5
78
100
AcDbEntity
100
AcDbMText
  8
graduations
 62
256
370
-1
  6
ByLayer
 10
54.0
 20
7.2249999999999996
 30
0.0
 40
1.0
 41
100.0
 71
1
 72
2
  1
5.25
  7
standard
 50
0.0
 73
1
 44
1.0
  0
MTEXT
  5
79
100
AcDbEntity
100
AcDbMText
  8
graduations
 62
256
370
-1
  6
ByLayer
 10
60.0
 20
7.4749999999999996
 30
0.0
 40
1.0
 41
100.0
 71
1
 72
2
  1
5.50
  7
standard
 50
0.0
 73
1
 44
1.0
  0
MTEXT
  5
7A
100
AcDbEntity
100
AcDbMText
  8
graduations
 62
256
370
-1
  6
ByLayer
 10
66.0
 20
7.7249999999999996
 30
0.0
 40
1.0
 41
100.0
 71
1
 72
2
  1
5.75
  7
standard
 50
0.0
 73
1
 44
1.0
  0
MTEXT
  5
7B
100
AcDbEntity
100
AcDbMText
  8
graduations
 62
256
370
-1
  6
ByLayer
 10
72.0
 20
7.9749999999999996
 30
0.0
 40
1.0
 41
100.0
 71
1
 72
2
  1
6.00
  7
standard
 50
0.0
 73
1
 44
1.0
  0
LINE
  5
7C
100
AcDbEntity
100
AcDbLine
  8
graduations
 62
256
370
-1
  6
ByLayer
 10
5.0
 20
6.25
 30
0.0
 11
10.0
 21
6.25
 31
0.0
  0
LINE
  5
7D
100
AcDbEntity
100
AcDbLine
  8
graduations
 62
256
370
-1
  6
ByLayer
 10
5.0
 20
6.25
 30
0.0
 11
5.0
 21
6.25
 31
0.0
  0
LINE
  5
7E
100
AcDbEntity
100
AcDbLine
  8
graduations
 62
256
370
-1
  6
ByLayer
 10
11.0
 20
6.5
 30
0.0
 11
16.0
 21
6.5
 31
0.0
  0
LINE
  5
7F
100
AcDbEntity
100
AcDbLine
  8
graduations
 62
256
370
-1
  6
ByLayer
 10
17.0
 20
6.75
 30
0.0
 11
22.0
 21
6.75
 31
0.0
  0
LINE
  5
80
100
AcDbEntity
100
AcDbLine
  8
graduations
 62
256
370
-1
  6
ByLayer
 10
23.0
 20
7.0
 30
0.0
 11
28.0
 21
7.0
 31
0.0
  0
LINE
  5
81
100
AcDbEntity
100
AcDbLine
  8
graduations
 62
256
370
-1
  6
ByLayer
 10
29.0
 20
7.25
 30
0.0
 11
34.0
 21
7.25
 31
0.0
  0
LINE
  5
82
100
AcDbEntity
100
AcDbLine
  8
graduations
 62
256
370
-1
  6
ByLayer
 10
35.0
 20
7.5
 30
0.0
 11
40.0
 21
7.5
 31
0.0
  0
LINE
  5
83
100
AcDbEntity
100
AcDbLine
  8
graduations
 62
256
370
-1
  6
ByLayer
 10
41.0
 20
7.75
 30
0.0
 11
46.0
 21
7.75
 31
0.0
  0
LINE
  5
84
100
AcDbEntity
100
AcDbLine
  8
graduations
 62
256
370
-1
  6
ByLayer
 10
47.0
 20
8.0
 30
0.0
 11
52.0
 21
8.0
 31
0.0
  0
LINE
  5
85
100
AcDbEntity
100
AcDbLine
  8
graduations
 62
256
370
-1
  6
ByLayer
 10
53.0
 20
8.25
 30
0.0
 11
58.0
 21
8.25
 31
0.0
  0
LINE
  5
86
100
AcDbEntity
100
AcDbLine
  8
graduations
 62
256
370
-1
  6
ByLayer
 10
59.0
 20
8.5
 30
0.0
 11
64.0
 21
8.5
 31
0.0
  0
LINE
  5
87
100
AcDbEntity
100
AcDbLine
  8
graduations
 62
256
370
-1
  6
ByLayer
 10
65.0
 20
8.75
 30
0.0
 11
70.0
 21
8.75
 31
0.0
  0
LINE
  5
88
100
AcDbEntity
100
AcDbLine
  8
graduations
 62
256
370
-1
  6
ByLayer
 10
71.0
 20
9.0
 30
0.0
 11
76.0
 21
9.0
 31
0.0
  0
LINE
  5
89
100
AcDbEntity
100
AcDbLine
  8
graduations
 62
256
370
-1
  6
ByLayer
 10
5.0
 20
9.25
 30
0.0
 11
10.0
 21
9.25
 31
0.0
  0
LINE
  5
8A
100
AcDbEntity
100
AcDbLine
  8
graduations
 62
256
370
-1
  6
ByLayer
 10
11.0
 20
9.5
 30
0.0
 11
16.0
 21
9.5
 31
0.0
  0
LINE
  5
8B
100
AcDbEntity
100
AcDbLine
  8
graduations
 62
256
370
-1
  6
ByLayer
 10
17.0
 20
9.75
 30
0.0
 11
22.0
 21
9.75
 31
0.0
  0
LINE
  5
8C
100
AcDbEntity
100
AcDbLine
  8
graduations
 62
256
370
-1
  6
ByLayer
 10
23.0
 20
10.0
 30
0.0
 11
28.0
 21
10.0
 31
0.0
  0
LINE
  5
8D
100
AcDbEntity
100
AcDbLine
  8
graduations
 62
256
370
-1
  6
ByLayer
 10
29.0
 20
10.25
 30
0.0
 11
34.0
 21
10.25
 31
0.0
  0
LINE
  5
8E
100
AcDbEntity
100
AcDbLine
  8
graduations
 62
256
370
-1
  6
ByLayer
 10
35.0
 20
10.5
 30
0.0
 11
40.0
 21
10.5
 31
0.0
  0
LINE
  5
8F
100
AcDbEntity
100
AcDbLine
  8
graduations
 62
256
370
-1
  6
ByLayer
 10
41.0
 20
10.75
 30
0.0
 11
46.0
 21
10.75
 31
0.0
  0
LINE
  5
90
100
AcDbEntity
100
AcDbLine
  8
graduations
 62
256
370
-1
  6
ByLayer
 10
47.0
 20
11.0
 30
0.0
 11
52.0
 21
11.0
 31
0.0
  0
LINE
  5
91
100
AcDbEntity
100
AcDbLine
  8
graduations
 62
256
370
-1
  6
ByLayer
 10
53.0
 20
11.25
 30
0.0
 11
58.0
 21
11.25
 31
0.0
  0
LINE
  5
92
100
AcDbEntity
100
AcDbLine
  8
graduations
 62
256
370
-1
  6
ByLayer
 10
59.0
 20
11.5
 30
0.0
 11
64.0
 21
11.5
 31
0.0
  0
LINE
  5
93
100
AcDbEntity
100
AcDbLine
  8
graduations
 62
256
370
-1
  6
ByLayer
 10
65.0
 20
11.75
 30
0.0
 11
70.0
 21
11.75
 31
0.0
  0
LINE
  5
94
100
AcDbEntity
100
AcDbLine
  8
graduations
 62
256
370
-1
  6
ByLayer
 10
71.0
 20
12.0
 30
0.0
 11
76.0
 21
12.0
 31
0.0
  0
MTEXT
  5
95
100
AcDbEntity
100
AcDbMText
  8
graduations
 62
256
370
-1
  6
ByLayer
 10
6.0
 20
8.2249999999999996
 30
0.0
 40
1.0
 41
100.0
 71
1
 72
2
  1
6.25
  7
standard
 50
0.0
 73
1
 44
1.0
  0
MTEXT
  5
96
100
AcDbEntity
100
AcDbMText
  8
graduations
 62
256
370
-1
  6
ByLayer
 10
12.0
 20
8.4749999999999996
 30
0.0
 40
1.0
 41
100.0
 71
1
 72
2
  1
6.50
  7
standard
 50
0.0
 73
1
 44
1.0
  0
MTEXT
  5
97
100
AcDbEntity
100
AcDbMText
  8
graduations
 62
256
370
-1
  6
ByLayer
 10
18.0
 20
8.7249999999999996
 30
0.0
 40
1.0
 41
100.0
 71
1
 72
2
  1
6.75
  7
standard
 50
0.0
 73
1
 44
1.0
  0
MTEXT
  5
98
100
AcDbEntity
100
AcDbMText
  8
graduations
 62
256
370
-1
  6
ByLayer
 10
6.0
 20
11.225
 30
0.0
 40
1.0
 41
100.0
 71
1
 72
2
  1
9.25
  7
standard
 50
0.0
 73
1
 44
1.0
  0
MTEXT
  5
99
100
AcDbEntity
100
AcDbMText
  8
graduations
 62
256
370
-1
  6
ByLayer
 10
12.0
 20
11.475
 30
0.0
 40
1.0
 41
100.0
 71
1
 72
2
  1
9.50
  7
standard
 50
0.0
 73
1
 44
1.0
  0
MTEXT
  5
9A
100
AcDbEntity
100
AcDbMText
  8
graduations
 62
256
370
-1
  6
ByLayer
 10
18.0
 20
11.725
 30
0.0
 40
1.0
 41
100.0
 71
1
 72
2
  1
9.75
  7
standard
 50
0.0
 73
1
 44
1.0
  0
MTEXT
  5
9B
100
AcDbEntity
100
AcDbMText
  8
graduations
 62
256
370
-1
  6
ByLayer
 10
24.0
 20
8.9749999999999996
 30
0.0
 40
1.0
 41
100.0
 71
1
 72
2
  1
7.00
  7
standard
 50
0.0
 73
1
 44
1.0
  0
MTEXT
  5
9C
100
AcDbEntity
100
AcDbMText
  8
graduations
 62
256
370
-1
  6
ByLayer
 10
24.0
 20
11.975
 30
0.0
 40
1.0
 41
100.0
 71
1
 72
2
  1
10.00
  7
standard
 50
0.0
 73
1
 44
1.0
  0
MTEXT
  5
9D
100
AcDbEntity
100
AcDbMText
  8
graduations
 62
256
370
-1
  6
ByLayer
 10
30.0
 20
9.2249999999999996
 30
0.0
 40
1.0
 41
100.0
 71
1
 72
2
  1
7.25
  7
standard
 50
0.0
 73
1
 44
1.0
  0
MTEXT
  5
9E
100
AcDbEntity
100
AcDbMText
  8
graduations
 62
256
370
-1
  6
ByLayer
 10
30.0
 20
12.225
 30
0.0
 40
1.0
 41
100.0
 71
1
 72
2
  1
10.25
  7
standard
 50
0.0
 73
1
 44
1.0
  0
MTEXT
  5
9F
100
AcDbEntity
100
AcDbMText
  8
graduations
 62
256
370
-1
  6
ByLayer
 10
36.0
 20
9.4749999999999996
 30
0.0
 40
1.0
 41
100.0
 71
1
 72
2
  1
7.50
  7
standard
 50
0.0
 73
1
 44
1.0
  0
MTEXT
  5
A0
100
AcDbEntity
100
AcDbMText
  8
graduations
 62
256
370
-1
  6
ByLayer
 10
36.0
 20
12.475
 30
0.0
 40
1.0
 41
100.0
 71
1
 72
2
  1
10.50
  7
standard
 50
0.0
 73
1
 44
1.0
  0
MTEXT
  5
A1
100
AcDbEntity
100
AcDbMText
  8
graduations
 62
256
370
-1
  6
ByLayer
 10
42.0
 20
9.7249999999999996
 30
0.0
 40
1.0
 41
100.0
 71
1
 72
2
  1
7.75
  7
standard
 50
0.0
 73
1
 44
1.0
  0
MTEXT
  5
A2
100
AcDbEntity
100
AcDbMText
  8
graduations
 62
256
370
-1
  6
ByLayer
 10
42.0
 20
12.725
 30
0.0
 40
1.0
 41
100.0
 71
1
 72
2
  1
10.75
  7
standard
 50
0.0
 73
1
 44
1.0
  0
MTEXT
  5
A3
100
AcDbEntity
100
AcDbMText
  8
graduations
 62
256
370
-1
  6
ByLayer
 10
48.0
 20
9.9749999999999996
 30
0.0
 40
1.0
 41
100.0
 71
1
 72
2
  1
8.00
  7
standard
 50
0.0
 73
1
 44
1.0
  0
MTEXT
  5
A4
100
AcDbEntity
100
AcDbMText
  8
graduations
 62
256
370
-1
  6
ByLayer
 10
48.0
 20
12.975
 30
0.0
 40
1.0
 41
100.0
 71
1
 72
2
  1
11.00
  7
standard
 50
0.0
 73
1
 44
1.0
  0
MTEXT
  5
A5
100
AcDbEntity
100
AcDbMText
  8
graduations
 62
256
370
-1
  6
ByLayer
 10
54.0
 20
10.225
 30
0.0
 40
1.0
 41
100.0
 71
1
 72
2
  1
8.25
  7
standard
 50
0.0
 73
1
 44
1.0
  0
MTEXT
  5
A6
100
AcDbEntity
100
AcDbMText
  8
graduations
 62
256
370
-1
  6
ByLayer
 10
54.0
 20
13.225
 30
0.0
 40
1.0
 41
100.0
 71
1
 72
2
  1
11.25
  7
standard
 50
0.0
 73
1
 44
1.0
  0
MTEXT
  5
A7
100
AcDbEntity
100
AcDbMText
  8
graduations
 62
256
370
-1
  6
ByLayer
 10
60.0
 20
10.475
 30
0.0
 40
1.0
 41
100.0
 71
1
 72
2
  1
8.50
  7
standard
 50
0.0
 73
1
 44
1.0
  0
MTEXT
  5
A8
100
AcDbEntity
100
AcDbMText
  8
graduations
 62
256
370
-1
  6
ByLayer
 10
60.0
 20
13.475
 30
0.0
 40
1.0
 41
100.0
 71
1
 72
2
  1
11.50
  7
standard
 50
0.0
 73
1
 44
1.0
  0
MTEXT
  5
A9
100
AcDbEntity
100
AcDbMText
  8
graduations
 62
256
370
-1
  6
ByLayer
 10
66.0
 20
10.725
 30
0.0
 40
1.0
 41
100.0
 71
1
 72
2
  1
8.75
  7
standard
 50
0.0
 73
1
 44
1.0
  0
MTEXT
  5
AA
100
AcDbEntity
100
AcDbMText
  8
graduations
 62
256
370
-1
  6
ByLayer
 10
66.0
 20
13.725
 30
0.0
 40
1.0
 41
100.0
 71
1
 72
2
  1
11.75
  7
standard
 50
0.0
 73
1
 44
1.0
  0
MTEXT
  5
AB
100
AcDbEntity
100
AcDbMText
  8
graduations
 62
256
370
-1
  6
ByLayer
 10
72.0
 20
10.975
 30
0.0
 40
1.0
 41
100.0
 71
1
 72
2
  1
9.00
  7
standard
 50
0.0
 73
1
 44
1.0
  0
MTEXT
  5
AC
100
AcDbEntity
100
AcDbMText
  8
graduations
 62
256
370
-1
  6
ByLayer
 10
72.0
 20
13.975
 30
0.0
 40
1.0
 41
100.0
 71
1
 72
2
  1
12.00
  7
standard
 50
0.0
 73
1
 44
1.0
  0
LINE
  5
AD
100
AcDbEntity
100
AcDbLine
  8
graduations
 62
256
370
-1
  6
ByLayer
 10
79.0
 20
50.0
 30
0.0
 11
79.0
 21
42.0
 31
0.0
  0
LINE
  5
AE
100
AcDbEntity
100
AcDbLine
  8
graduations
 62
256
370
-1
  6
ByLayer
 10
78.0
 20
50.0
 30
0.0
 11
78.0
 21
42.0
 31
0.0
  0
LINE
  5
AF
100
AcDbEntity
100
AcDbLine
  8
graduations
 62
256
370
-1
  6
ByLayer
 10
77.0
 20
50.0
 30
0.0
 11
77.0
 21
42.0
 31
0.0
  0
LINE
  5
B0
100
AcDbEntity
100
AcDbLine
  8
graduations
 62
256
370
20
  6
CONTINUOUS
 10
75.0
 20
50.0
 30
0.0
 11
75.0
 21
40.0
 31
0.0
  0
LINE
  5
B1
100
AcDbEntity
100
AcDbLine
  8
graduations
 62
256
370
-1
  6
ByLayer
 10
76.0
 20
50.0
 30
0.0
 11
76.0
 21
42.0
 31
0.0
  0
LINE
  5
B2
100
AcDbEntity
100
AcDbLine
  8
graduations
 62
256
370
-1
  6
ByLayer
 10
74.0
 20
50.0
 30
0.0
 11
74.0
 21
42.0
 31
0.0
  0
LINE
  5
B3
100
AcDbEntity
100
AcDbLine
  8
graduations
 62
256
370
-1
  6
ByLayer
 10
73.0
 20
50.0
 30
0.0
 11
73.0
 21
42.0
 31
0.0
  0
LINE
  5
B4
100
AcDbEntity
100
AcDbLine
  8
graduations
 62
256
370
-1
  6
ByLayer
 10
72.0
 20
50.0
 30
0.0
 11
72.0
 21
42.0
 31
0.0
  0
LINE
  5
B5
100
AcDbEntity
100
AcDbLine
  8
graduations
 62
256
370
-1
  6
ByLayer
 10
71.0
 20
50.0
 30
0.0
 11
71.0
 21
42.0
 31
0.0
  0
LINE
  5
B6
100
AcDbEntity
100
AcDbLine
  8
graduations
 62
256
370
20
  6
CONTINUOUS
 10
70.0
 20
50.0
 30
0.0
 11
70.0
 21
38.0
 31
0.0
  0
LINE
  5
B7
100
AcDbEntity
100
AcDbLine
  8
graduations
 62
256
370
-1
  6
ByLayer
 10
69.0
 20
50.0
 30
0.0
 11
69.0
 21
42.0
 31
0.0
  0
LINE
  5
B8
100
AcDbEntity
100
AcDbLine
  8
graduations
 62
256
370
-1
  6
ByLayer
 10
68.0
 20
50.0
 30
0.0
 11
68.0
 21
42.0
 31
0.0
  0
LINE
  5
B9
100
AcDbEntity
100
AcDbLine
  8
graduations
 62
256
370
-1
  6
ByLayer
 10
67.0
 20
50.0
 30
0.0
 11
67.0
 21
42.0
 31
0.0
  0
LINE
  5
BA
100
AcDbEntity
100
AcDbLine
  8
graduations
 62
256
370
20
  6
CONTINUOUS
 10
65.0
 20
50.0
 30
0.0
 11
65.0
 21
40.0
 31
0.0
  0
LINE
  5
BB
100
AcDbEntity
100
AcDbLine
  8
graduations
 62
256
370
-1
  6
ByLayer
 10
66.0
 20
50.0
 30
0.0
 11
66.0
 21
42.0
 31
0.0
  0
LINE
  5
BC
100
AcDbEntity
100
AcDbLine
  8
graduations
 62
256
370
-1
  6
ByLayer
 10
64.0
 20
50.0
 30
0.0
 11
64.0
 21
42.0
 31
0.0
  0
LINE
  5
BD
100
AcDbEntity
100
AcDbLine
  8
graduations
 62
256
370
-1
  6
ByLayer
 10
63.0
 20
50.0
 30
0.0
 11
63.0
 21
42.0
 31
0.0
  0
LINE
  5
BE
100
AcDbEntity
100
AcDbLine
  8
graduations
 62
256
370
-1
  6
ByLayer
 10
62.0
 20
50.0
 30
0.0
 11
62.0
 21
42.0
 31
0.0
  0
LINE
  5
BF
100
AcDbEntity
100
AcDbLine
  8
graduations
 62
256
370
-1
  6
ByLayer
 10
61.0
 20
50.0
 30
0.0
 11
61.0
 21
42.0
 31
0.0
  0
LINE
  5
C0
100
AcDbEntity
100
AcDbLine
  8
graduations
 62
256
370
20
  6
CONTINUOUS
 10
60.0
 20
50.0
 30
0.0
 11
60.0
 21
38.0
 31
0.0
  0
LINE
  5
C1
100
AcDbEntity
100
AcDbLine
  8
graduations
 62
256
370
-1
  6
ByLayer
 10
59.0
 20
50.0
 30
0.0
 11
59.0
 21
42.0
 31
0.0
  0
LINE
  5
C2
100
AcDbEntity
100
AcDbLine
  8
graduations
 62
256
370
-1
  6
ByLayer
 10
58.0
 20
50.0
 30
0.0
 11
58.0
 21
42.0
 31
0.0
  0
LINE
  5
C3
100
AcDbEntity
100
AcDbLine
  8
graduations
 62
256
370
-1
  6
ByLayer
 10
57.0
 20
50.0
 30
0.0
 11
57.0
 21
42.0
 31
0.0
  0
LINE
  5
C4
100
AcDbEntity
100
AcDbLine
  8
graduations
 62
256
370
20
  6
CONTINUOUS
 10
55.0
 20
50.0
 30
0.0
 11
55.0
 21
40.0
 31
0.0
  0
LINE
  5
C5
100
AcDbEntity
100
AcDbLine
  8
graduations
 62
256
370
-1
  6
ByLayer
 10
56.0
 20
50.0
 30
0.0
 11
56.0
 21
42.0
 31
0.0
  0
LINE
  5
C6
100
AcDbEntity
100
AcDbLine
  8
graduations
 62
256
370
-1
  6
ByLayer
 10
54.0
 20
50.0
 30
0.0
 11
54.0
 21
42.0
 31
0.0
  0
LINE
  5
C7
100
AcDbEntity
100
AcDbLine
  8
graduations
 62
256
370
-1
  6
ByLayer
 10
53.0
 20
50.0
 30
0.0
 11
53.0
 21
42.0
 31
0.0
  0
LINE
  5
C8
100
AcDbEntity
100
AcDbLine
  8
graduations
 62
256
370
-1
  6
ByLayer
 10
52.0
 20
50.0
 30
0.0
 11
52.0
 21
42.0
 31
0.0
  0
LINE
  5
C9
100
AcDbEntity
100
AcDbLine
  8
graduations
 62
256
370
-1
  6
ByLayer
 10
51.0
 20
50.0
 30
0.0
 11
51.0
 21
42.0
 31
0.0
  0
LINE
  5
CA
100
AcDbEntity
100
AcDbLine
  8
graduations
 62
256
370
20
  6
CONTINUOUS
 10
50.0
 20
50.0
 30
0.0
 11
50.0
 21
38.0
 31
0.0
  0
LINE
  5
CB
100
AcDbEntity
100
AcDbLine
  8
graduations
 62
256
370
-1
  6
ByLayer
 10
49.0
 20
50.0
 30
0.0
 11
49.0
 21
42.0
 31
0.0
  0
LINE
  5
CC
100
AcDbEntity
100
AcDbLine
  8
graduations
 62
256
370
-1
  6
ByLayer
 10
48.0
 20
50.0
 30
0.0
 11
48.0
 21
42.0
 31
0.0
  0
LINE
  5
CD
100
AcDbEntity
100
AcDbLine
  8
graduations
 62
256
370
-1
  6
ByLayer
 10
47.0
 20
50.0
 30
0.0
 11
47.0
 21
42.0
 31
0.0
  0
LINE
  5
CE
100
AcDbEntity
100
AcDbLine
  8
graduations
 62
256
370
20
  6
CONTINUOUS
 10
45.0
 20
50.0
 30
0.0
 11
45.0
 21
40.0
 31
0.0
  0
LINE
  5
CF
100
AcDbEntity
100
AcDbLine
  8
graduations
 62
256
370
-1
  6
ByLayer
 10
46.0
 20
50.0
 30
0.0
 11
46.0
 21
42.0
 31
0.0
  0
LINE
  5
D0
100
AcDbEntity
100
AcDbLine
  8
graduations
 62
256
370
-1
  6
ByLayer
 10
44.0
 20
50.0
 30
0.0
 11
44.0
 21
42.0
 31
0.0
  0
LINE
  5
D1
100
AcDbEntity
100
AcDbLine
  8
graduations
 62
256
370
-1
  6
ByLayer
 10
43.0
 20
50.0
 30
0.0
 11
43.0
 21
42.0
 31
0.0
  0
LINE
  5
D2
100
AcDbEntity
100
AcDbLine
  8
graduations
 62
256
370
-1
  6
ByLayer
 10
42.0
 20
50.0
 30
0.0
 11
42.0
 21
42.0
 31
0.0
  0
LINE
  5
D3
100
AcDbEntity
100
AcDbLine
  8
graduations
 62
256
370
-1
  6
ByLayer
 10
41.0
 20
50.0
 30
0.0
 11
41.0
 21
42.0
 31
0.0
  0
LINE
  5
D4
100
AcDbEntity
100
AcDbLine
  8
graduations
 62
256
370
20
  6
CONTINUOUS
 10
40.0
 20
50.0
 30
0.0
 11
40.0
 21
38.0
 31
0.0
  0
LINE
  5
D5
100
AcDbEntity
100
AcDbLine
  8
graduations
 62
256
370
-1
  6
ByLayer
 10
39.0
 20
50.0
 30
0.0
 11
39.0
 21
42.0
 31
0.0
  0
LINE
  5
D6
100
AcDbEntity
100
AcDbLine
  8
graduations
 62
256
370
-1
  6
ByLayer
 10
38.0
 20
50.0
 30
0.0
 11
38.0
 21
42.0
 31
0.0
  0
LINE
  5
D7
100
AcDbEntity
100
AcDbLine
  8
graduations
 62
256
370
-1
  6
ByLayer
 10
37.0
 20
50.0
 30
0.0
 11
37.0
 21
42.0
 31
0.0
  0
LINE
  5
D8
100
AcDbEntity
100
AcDbLine
  8
graduations
 62
256
370
20
  6
CONTINUOUS
 10
35.0
 20
50.0
 30
0.0
 11
35.0
 21
40.0
 31
0.0
  0
LINE
  5
D9
100
AcDbEntity
100
AcDbLine
  8
graduations
 62
256
370
-1
  6
ByLayer
 10
36.0
 20
50.0
 30
0.0
 11
36.0
 21
42.0
 31
0.0
  0
LINE
  5
DA
100
AcDbEntity
100
AcDbLine
  8
graduations
 62
256
370
-1
  6
ByLayer
 10
34.0
 20
50.0
 30
0.0
 11
34.0
 21
42.0
 31
0.0
  0
LINE
  5
DB
100
AcDbEntity
100
AcDbLine
  8
graduations
 62
256
370
-1
  6
ByLayer
 10
33.0
 20
50.0
 30
0.0
 11
33.0
 21
42.0
 31
0.0
  0
LINE
  5
DC
100
AcDbEntity
100
AcDbLine
  8
graduations
 62
256
370
-1
  6
ByLayer
 10
32.0
 20
50.0
 30
0.0
 11
32.0
 21
42.0
 31
0.0
  0
LINE
  5
DD
100
AcDbEntity
100
AcDbLine
  8
graduations
 62
256
370
-1
  6
ByLayer
 10
31.0
 20
50.0
 30
0.0
 11
31.0
 21
42.0
 31
0.0
  0
LINE
  5
DE
100
AcDbEntity
100
AcDbLine
  8
graduations
 62
256
370
20
  6
CONTINUOUS
 10
30.0
 20
50.0
 30
0.0
 11
30.0
 21
38.0
 31
0.0
  0
LINE
  5
DF
100
AcDbEntity
100
AcDbLine
  8
graduations
 62
256
370
-1
  6
ByLayer
 10
29.0
 20
50.0
 30
0.0
 11
29.0
 21
42.0
 31
0.0
  0
LINE
  5
E0
100
AcDbEntity
100
AcDbLine
  8
graduations
 62
256
370
-1
  6
ByLayer
 10
28.0
 20
50.0
 30
0.0
 11
28.0
 21
42.0
 31
0.0
  0
LINE
  5
E1
100
AcDbEntity
100
AcDbLine
  8
graduations
 62
256
370
-1
  6
ByLayer
 10
27.0
 20
50.0
 30
0.0
 11
27.0
 21
42.0
 31
0.0
  0
LINE
  5
E2
100
AcDbEntity
100
AcDbLine
  8
graduations
 62
256
370
20
  6
CONTINUOUS
 10
25.0
 20
50.0
 30
0.0
 11
25.0
 21
40.0
 31
0.0
  0
LINE
  5
E3
100
AcDbEntity
100
AcDbLine
  8
graduations
 62
256
370
-1
  6
ByLayer
 10
26.0
 20
50.0
 30
0.0
 11
26.0
 21
42.0
 31
0.0
  0
LINE
  5
E4
100
AcDbEntity
100
AcDbLine
  8
graduations
 62
256
370
-1
  6
ByLayer
 10
24.0
 20
50.0
 30
0.0
 11
24.0
 21
42.0
 31
0.0
  0
LINE
  5
E5
100
AcDbEntity
100
AcDbLine
  8
graduations
 62
256
370
-1
  6
ByLayer
 10
23.0
 20
50.0
 30
0.0
 11
23.0
 21
42.0
 31
0.0
  0
LINE
  5
E6
100
AcDbEntity
100
AcDbLine
  8
graduations
 62
256
370
-1
  6
ByLayer
 10
22.0
 20
50.0
 30
0.0
 11
22.0
 21
42.0
 31
0.0
  0
LINE
  5
E7
100
AcDbEntity
100
AcDbLine
  8
graduations
 62
256
370
-1
  6
ByLayer
 10
21.0
 20
50.0
 30
0.0
 11
21.0
 21
42.0
 31
0.0
  0
LINE
  5
E8
100
AcDbEntity
100
AcDbLine
  8
graduations
 62
256
370
20
  6
CONTINUOUS
 10
20.0
 20
50.0
 30
0.0
 11
20.0
 21
38.0
 31
0.0
  0
LINE
  5
E9
100
AcDbEntity
100
AcDbLine
  8
graduations
 62
256
370
-1
  6
ByLayer
 10
19.0
 20
50.0
 30
0.0
 11
19.0
 21
42.0
 31
0.0
  0
LINE
  5
EA
100
AcDbEntity
100
AcDbLine
  8
graduations
 62
256
370
-1
  6
ByLayer
 10
18.0
 20
50.0
 30
0.0
 11
18.0
 21
42.0
 31
0.0
  0
LINE
  5
EB
100
AcDbEntity
100
AcDbLine
  8
graduations
 62
256
370
-1
  6
ByLayer
 10
17.0
 20
50.0
 30
0.0
 11
17.0
 21
42.0
 31
0.0
  0
LINE
  5
EC
100
AcDbEntity
100
AcDbLine
  8
graduations
 62
256
370
20
  6
CONTINUOUS
 10
15.0
 20
50.0
 30
0.0
 11
15.0
 21
40.0
 31
0.0
  0
LINE
  5
ED
100
AcDbEntity
100
AcDbLine
  8
graduations
 62
256
370
-1
  6
ByLayer
 10
16.0
 20
50.0
 30
0.0
 11
16.0
 21
42.0
 31
0.0
  0
LINE
  5
EE
100
AcDbEntity
100
AcDbLine
  8
graduations
 62
256
370
-1
  6
ByLayer
 10
14.0
 20
50.0
 30
0.0
 11
14.0
 21
42.0
 31
0.0
  0
LINE
  5
EF
100
AcDbEntity
100
AcDbLine
  8
graduations
 62
256
370
-1
  6
ByLayer
 10
13.0
 20
50.0
 30
0.0
 11
13.0
 21
42.0
 31
0.0
  0
LINE
  5
F0
100
AcDbEntity
100
AcDbLine
  8
graduations
 62
256
370
-1
  6
ByLayer
 10
12.0
 20
50.0
 30
0.0
 11
12.0
 21
42.0
 31
0.0
  0
LINE
  5
F1
100
AcDbEntity
100
AcDbLine
  8
graduations
 62
256
370
-1
  6
ByLayer
 10
11.0
 20
50.0
 30
0.0
 11
11.0
 21
42.0
 31
0.0
  0
LINE
  5
F2
100
AcDbEntity
100
AcDbLine
  8
graduations
 62
256
370
20
  6
CONTINUOUS
 10
10.0
 20
50.0
 30
0.0
 11
10.0
 21
38.0
 31
0.0
  0
LINE
  5
F3
100
AcDbEntity
100
AcDbLine
  8
graduations
 62
256
370
-1
  6
ByLayer
 10
9.0
 20
50.0
 30
0.0
 11
9.0
 21
42.0
 31
0.0
  0
LINE
  5
F4
100
AcDbEntity
100
AcDbLine
  8
graduations
 62
256
370
-1
  6
ByLayer
 10
8.0
 20
50.0
 30
0.0
 11
8.0
 21
42.0
 31
0.0
  0
LINE
  5
F5
100
AcDbEntity
100
AcDbLine
  8
graduations
 62
256
370
-1
  6
ByLayer
 10
7.0
 20
50.0
 30
0.0
 11
7.0
 21
42.0
 31
0.0
  0
LINE
  5
F6
100
AcDbEntity
100
AcDbLine
  8
graduations
 62
256
370
20
  6
CONTINUOUS
 10
5.0
 20
50.0
 30
0.0
 11
5.0
 21
40.0
 31
0.0
  0
LINE
  5
F7
100
AcDbEntity
100
AcDbLine
  8
graduations
 62
256
370
-1
  6
ByLayer
 10
6.0
 20
50.0
 30
0.0
 11
6.0
 21
42.0
 31
0.0
  0
LINE
  5
F8
100
AcDbEntity
100
AcDbLine
  8
graduations
 62
256
370
-1
  6
ByLayer
 10
4.0
 20
50.0
 30
0.0
 11
4.0
 21
42.0
 31
0.0
  0
LINE
  5
F9
100
AcDbEntity
100
AcDbLine
  8
graduations
 62
256
370
-1
  6
ByLayer
 10
3.0
 20
50.0
 30
0.0
 11
3.0
 21
42.0
 31
0.0
  0
LINE
  5
FA
100
AcDbEntity
100
AcDbLine
  8
graduations
 62
256
370
-1
  6
ByLayer
 10
2.0
 20
50.0
 30
0.0
 11
2.0
 21
42.0
 31
0.0
  0
LINE
  5
FB
100
AcDbEntity
100
AcDbLine
  8
graduations
 62
256
370
-1
  6
ByLayer
 10
1.0
 20
50.0
 30
0.0
 11
1.0
 21
42.0
 31
0.0
  0
LINE
  5
FC
100
AcDbEntity
100
AcDbLine
  8
graduations
 62
256
370
20
  6
CONTINUOUS
 10
0.0
 20
50.0
 30
0.0
 11
0.0
 21
38.0
 31
0.0
  0
LINE
  5
FD
100
AcDbEntity
100
AcDbLine
  8
graduations
 62
256
370
-1
  6
ByLayer
 10
78.5
 20
49.0
 30
0.0
 11
78.5
 21
43.0
 31
0.0
  0
LINE
  5
FE
100
AcDbEntity
100
AcDbLine
  8
graduations
 62
256
370
-1
  6
ByLayer
 10
77.5
 20
49.0
 30
0.0
 11
77.5
 21
43.0
 31
0.0
  0
LINE
  5
FF
100
AcDbEntity
100
AcDbLine
  8
graduations
 62
256
370
-1
  6
ByLayer
 10
76.5
 20
49.0
 30
0.0
 11
76.5
 21
43.0
 31
0.0
  0
LINE
  5
100
100
AcDbEntity
100
AcDbLine
  8
graduations
 62
256
370
-1
  6
ByLayer
 10
75.5
 20
49.0
 30
0.0
 11
75.5
 21
43.0
 31
0.0
  0
LINE
  5
101
100
AcDbEntity
100
AcDbLine
  8
graduations
 62
256
370
-1
  6
ByLayer
 10
74.5
 20
49.0
 30
0.0
 11
74.5
 21
43.0
 31
0.0
  0
LINE
  5
102
100
AcDbEntity
100
AcDbLine
  8
graduations
 62
256
370
-1
  6
ByLayer
 10
73.5
 20
49.0
 30
0.0
 11
73.5
 21
43.0
 31
0.0
  0
LINE
  5
103
100
AcDbEntity
100
AcDbLine
  8
graduations
 62
256
370
-1
  6
ByLayer
 10
72.5
 20
49.0
 30
0.0
 11
72.5
 21
43.0
 31
0.0
  0
LINE
  5
104
100
AcDbEntity
100
AcDbLine
  8
graduations
 62
256
370
-1
  6
ByLayer
 10
71.5
 20
49.0
 30
0.0
 11
71.5
 21
43.0
 31
0.0
  0
LINE
  5
105
100
AcDbEntity
100
AcDbLine
  8
graduations
 62
256
370
-1
  6
ByLayer
 10
70.5
 20
49.0
 30
0.0
 11
70.5
 21
43.0
 31
0.0
  0
LINE
  5
106
100
AcDbEntity
100
AcDbLine
  8
graduations
 62
256
370
-1
  6
ByLayer
 10
69.5
 20
49.0
 30
0.0
 11
69.5
 21
43.0
 31
0.0
  0
LINE
  5
107
100
AcDbEntity
100
AcDbLine
  8
graduations
 62
256
370
-1
  6
ByLayer
 10
68.5
 20
49.0
 30
0.0
 11
68.5
 21
43.0
 31
0.0
  0
LINE
  5
108
100
AcDbEntity
100
AcDbLine
  8
graduations
 62
256
370
-1
  6
ByLayer
 10
67.5
 20
49.0
 30
0.0
 11
67.5
 21
43.0
 31
0.0
  0
LINE
  5
109
100
AcDbEntity
100
AcDbLine
  8
graduations
 62
256
370
-1
  6
ByLayer
 10
66.5
 20
49.0
 30
0.0
 11
66.5
 21
43.0
 31
0.0
  0
LINE
  5
10A
100
AcDbEntity
100
AcDbLine
  8
graduations
 62
256
370
-1
  6
ByLayer
 10
65.5
 20
49.0
 30
0.0
 11
65.5
 21
43.0
 31
0.0
  0
LINE
  5
10B
100
AcDbEntity
100
AcDbLine
  8
graduations
 62
256
370
-1
  6
ByLayer
 10
64.5
 20
49.0
 30
0.0
 11
64.5
 21
43.0
 31
0.0
  0
LINE
  5
10C
100
AcDbEntity
100
AcDbLine
  8
graduations
 62
256
370
-1
  6
ByLayer
 10
63.5
 20
49.0
 30
0.0
 11
63.5
 21
43.0
 31
0.0
  0
LINE
  5
10D
100
AcDbEntity
100
AcDbLine
  8
graduations
 62
256
370
-1
  6
ByLayer
 10
62.5
 20
49.0
 30
0.0
 11
62.5
 21
43.0
 31
0.0
  0
LINE
  5
10E
100
AcDbEntity
100
AcDbLine
  8
graduations
 62
256
370
-1
  6
ByLayer
 10
61.5
 20
49.0
 30
0.0
 11
61.5
 21
43.0
 31
0.0
  0
LINE
  5
10F
100
AcDbEntity
100
AcDbLine
  8
graduations
 62
256
370
-1
  6
ByLayer
 10
60.5
 20
49.0
 30
0.0
 11
60.5
 21
43.0
 31
0.0
  0
LINE
  5
110
100
AcDbEntity
100
AcDbLine
  8
graduations
 62
256
370
-1
  6
ByLayer
 10
59.5
 20
49.0
 30
0.0
 11
59.5
 21
43.0
 31
0.0
  0
LINE
  5
111
100
AcDbEntity
100
AcDbLine
  8
graduations
 62
256
370
-1
  6
ByLayer
 10
58.5
 20
49.0
 30
0.0
 11
58.5
 21
43.0
 31
0.0
  0
LINE
  5
112
100
AcDbEntity
100
AcDbLine
  8
graduations
 62
256
370
-1
  6
ByLayer
 10
57.5
 20
49.0
 30
0.0
 11
57.5
 21
43.0
 31
0.0
  0
LINE
  5
113
100
AcDbEntity
100
AcDbLine
  8
graduations
 62
256
370
-1
  6
ByLayer
 10
56.5
 20
49.0
 30
0.0
 11
56.5
 21
43.0
 31
0.0
  0
LINE
  5
114
100
AcDbEntity
100
AcDbLine
  8
graduations
 62
256
370
-1
  6
ByLayer
 10
55.5
 20
49.0
 30
0.0
 11
55.5
 21
43.0
 31
0.0
  0
LINE
  5
115
100
AcDbEntity
100
AcDbLine
  8
graduations
 62
256
370
-1
  6
ByLayer
 10
54.5
 20
49.0
 30
0.0
 11
54.5
 21
43.0
 31
0.0
  0
LINE
  5
116
100
AcDbEntity
100
AcDbLine
  8
graduations
 62
256
370
-1
  6
ByLayer
 10
53.5
 20
49.0
 30
0.0
 11
53.5
 21
43.0
 31
0.0
  0
LINE
  5
117
100
AcDbEntity
100
AcDbLine
  8
graduations
 62
256
370
-1
  6
ByLayer
 10
52.5
 20
49.0
 30
0.0
 11
52.5
 21
43.0
 31
0.0
  0
LINE
  5
118
100
AcDbEntity
100
AcDbLine
  8
graduations
 62
256
370
-1
  6
ByLayer
 10
51.5
 20
49.0
 30
0.0
 11
51.5
 21
43.0
 31
0.0
  0
LINE
  5
119
100
AcDbEntity
100
AcDbLine
  8
graduations
 62
256
370
-1
  6
ByLayer
 10
50.5
 20
49.0
 30
0.0
 11
50.5
 21
43.0
 31
0.0
  0
LINE
  5
11A
100
AcDbEntity
100
AcDbLine
  8
graduations
 62
256
370
-1
  6
ByLayer
 10
49.5
 20
49.0
 30
0.0
 11
49.5
 21
43.0
 31
0.0
  0
LINE
  5
11B
100
AcDbEntity
100
AcDbLine
  8
graduations
 62
256
370
-1
  6
ByLayer
 10
48.5
 20
49.0
 30
0.0
 11
48.5
 21
43.0
 31
0.0
  0
LINE
  5
11C
100
AcDbEntity
100
AcDbLine
  8
graduations
 62
256
370
-1
  6
ByLayer
 10
47.5
 20
49.0
 30
0.0
 11
47.5
 21
43.0
 31
0.0
  0
LINE
  5
11D
100
AcDbEntity
100
AcDbLine
  8
graduations
 62
256
370
-1
  6
ByLayer
 10
46.5
 20
49.0
 30
0.0
 11
46.5
 21
43.0
 31
0.0
  0
LINE
  5
11E
100
AcDbEntity
100
AcDbLine
  8
graduations
 62
256
370
-1
  6
ByLayer
 10
45.5
 20
49.0
 30
0.0
 11
45.5
 21
43.0
 31
0.0
  0
LINE
  5
11F
100
AcDbEntity
100
AcDbLine
  8
graduations
 62
256
370
-1
  6
ByLayer
 10
44.5
 20
49.0
 30
0.0
 11
44.5
 21
43.0
 31
0.0
  0
LINE
  5
120
100
AcDbEntity
100
AcDbLine
  8
graduations
 62
256
370
-1
  6
ByLayer
 10
43.5
 20
49.0
 30
0.0
 11
43.5
 21
43.0
 31
0.0
  0
LINE
  5
121
100
AcDbEntity
100
AcDbLine
  8
graduations
 62
256
370
-1
  6
ByLayer
 10
42.5
 20
49.0
 30
0.0
 11
42.5
 21
43.0
 31
0.0
  0
LINE
  5
122
100
AcDbEntity
100
AcDbLine
  8
graduations
 62
256
370
-1
  6
ByLayer
 10
41.5
 20
49.0
 30
0.0
 11
41.5
 21
43.0
 31
0.0
  0
LINE
  5
123
100
AcDbEntity
100
AcDbLine
  8
graduations
 62
256
370
-1
  6
ByLayer
 10
40.5
 20
49.0
 30
0.0
 11
40.5
 21
43.0
 31
0.0
  0
LINE
  5
124
100
AcDbEntity
100
AcDbLine
  8
graduations
 62
256
370
-1
  6
ByLayer
 10
39.5
 20
49.0
 30
0.0
 11
39.5
 21
43.0
 31
0.0
  0
LINE
  5
125
100
AcDbEntity
100
AcDbLine
  8
graduations
 62
256
370
-1
  6
ByLayer
 10
38.5
 20
49.0
 30
0.0
 11
38.5
 21
43.0
 31
0.0
  0
LINE
  5
126
100
AcDbEntity
100
AcDbLine
  8
graduations
 62
256
370
-1
  6
ByLayer
 10
37.5
 20
49.0
 30
0.0
 11
37.5
 21
43.0
 31
0.0
  0
LINE
  5
127
100
AcDbEntity
100
AcDbLine
  8
graduations
 62
256
370
-1
  6
ByLayer
 10
36.5
 20
49.0
 30
0.0
 11
36.5
 21
43.0
 31
0.0
  0
LINE
  5
128
100
AcDbEntity
100
AcDbLine
  8
graduations
 62
256
370
-1
  6
ByLayer
 10
35.5
 20
49.0
 30
0.0
 11
35.5
 21
43.0
 31
0.0
  0
LINE
  5
129
100
AcDbEntity
100
AcDbLine
  8
graduations
 62
256
370
-1
  6
ByLayer
 10
34.5
 20
49.0
 30
0.0
 11
34.5
 21
43.0
 31
0.0
  0
LINE
  5
12A
100
AcDbEntity
100
AcDbLine
  8
graduations
 62
256
370
-1
  6
ByLayer
 10
33.5
 20
49.0
 30
0.0
 11
33.5
 21
43.0
 31
0.0
  0
LINE
  5
12B
100
AcDbEntity
100
AcDbLine
  8
graduations
 62
256
370
-1
  6
ByLayer
 10
32.5
 20
49.0
 30
0.0
 11
32.5
 21
43.0
 31
0.0
  0
LINE
  5
12C
100
AcDbEntity
100
AcDbLine
  8
graduations
 62
256
370
-1
  6
ByLayer
 10
31.5
 20
49.0
 30
0.0
 11
31.5
 21
43.0
 31
0.0
  0
LINE
  5
12D
100
AcDbEntity
100
AcDbLine
  8
graduations
 62
256
370
-1
  6
ByLayer
 10
30.5
 20
49.0
 30
0.0
 11
30.5
 21
43.0
 31
0.0
  0
LINE
  5
12E
100
AcDbEntity
100
AcDbLine
  8
graduations
 62
256
370
-1
  6
ByLayer
 10
29.5
 20
49.0
 30
0.0
 11
29.5
 21
43.0
 31
0.0
  0
LINE
  5
12F
100
AcDbEntity
100
AcDbLine
  8
graduations
 62
256
370
-1
  6
ByLayer
 10
28.5
 20
49.0
 30
0.0
 11
28.5
 21
43.0
 31
0.0
  0
LINE
  5
130
100
AcDbEntity
100
AcDbLine
  8
graduations
 62
256
370
-1
  6
ByLayer
 10
27.5
 20
49.0
 30
0.0
 11
27.5
 21
43.0
 31
0.0
  0
LINE
  5
131
100
AcDbEntity
100
AcDbLine
  8
graduations
 62
256
370
-1
  6
ByLayer
 10
26.5
 20
49.0
 30
0.0
 11
26.5
 21
43.0
 31
0.0
  0
LINE
  5
132
100
AcDbEntity
100
AcDbLine
  8
graduations
 62
256
370
-1
  6
ByLayer
 10
25.5
 20
49.0
 30
0.0
 11
25.5
 21
43.0
 31
0.0
  0
LINE
  5
133
100
AcDbEntity
100
AcDbLine
  8
graduations
 62
256
370
-1
  6
ByLayer
 10
24.5
 20
49.0
 30
0.0
 11
24.5
 21
43.0
 31
0.0
  0
LINE
  5
134
100
AcDbEntity
100
AcDbLine
  8
graduations
 62
256
370
-1
  6
ByLayer
 10
23.5
 20
49.0
 30
0.0
 11
23.5
 21
43.0
 31
0.0
  0
LINE
  5
135
100
AcDbEntity
100
AcDbLine
  8
graduations
 62
256
370
-1
  6
ByLayer
 10
22.5
 20
49.0
 30
0.0
 11
22.5
 21
43.0
 31
0.0
  0
LINE
  5
136
100
AcDbEntity
100
AcDbLine
  8
graduations
 62
256
370
-1
  6
ByLayer
 10
21.5
 20
49.0
 30
0.0
 11
21.5
 21
43.0
 31
0.0
  0
LINE
  5
137
100
AcDbEntity
100
AcDbLine
  8
graduations
 62
256
370
-1
  6
ByLayer
 10
20.5
 20
49.0
 30
0.0
 11
20.5
 21
43.0
 31
0.0
  0
LINE
  5
138
100
AcDbEntity
100
AcDbLine
  8
graduations
 62
256
370
-1
  6
ByLayer
 10
19.5
 20
49.0
 30
0.0
 11
19.5
 21
43.0
 31
0.0
  0
LINE
  5
139
100
AcDbEntity
100
AcDbLine
  8
graduations
 62
256
370
-1
  6
ByLayer
 10
18.5
 20
49.0
 30
0.0
 11
18.5
 21
43.0
 31
0.0
  0
LINE
  5
13A
100
AcDbEntity
100
AcDbLine
  8
graduations
 62
256
370
-1
  6
ByLayer
 10
17.5
 20
49.0
 30
0.0
 11
17.5
 21
43.0
 31
0.0
  0
LINE
  5
13B
100
AcDbEntity
100
AcDbLine
  8
graduations
 62
256
370
-1
  6
ByLayer
 10
16.5
 20
49.0
 30
0.0
 11
16.5
 21
43.0
 31
0.0
  0
LINE
  5
13C
100
AcDbEntity
100
AcDbLine
  8
graduations
 62
256
370
-1
  6
ByLayer
 10
15.5
 20
49.0
 30
0.0
 11
15.5
 21
43.0
 31
0.0
  0
LINE
  5
13D
100
AcDbEntity
100
AcDbLine
  8
graduations
 62
256
370
-1
  6
ByLayer
 10
14.5
 20
49.0
 30
0.0
 11
14.5
 21
43.0
 31
0.0
  0
LINE
  5
13E
100
AcDbEntity
100
AcDbLine
  8
graduations
 62
256
370
-1
  6
ByLayer
 10
13.5
 20
49.0
 30
0.0
 11
13.5
 21
43.0
 31
0.0
  0
LINE
  5
13F
100
AcDbEntity
100
AcDbLine
  8
graduations
 62
256
370
-1
  6
ByLayer
 10
12.5
 20
49.0
 30
0.0
 11
12.5
 21
43.0
 31
0.0
  0
LINE
  5
140
100
AcDbEntity
100
AcDbLine
  8
graduations
 62
256
370
-1
  6
ByLayer
 10
11.5
 20
49.0
 30
0.0
 11
11.5
 21
43.0
 31
0.0
  0
LINE
  5
141
100
AcDbEntity
100
AcDbLine
  8
graduations
 62
256
370
-1
  6
ByLayer
 10
10.5
 20
49.0
 30
0.0
 11
10.5
 21
43.0
 31
0.0
  0
LINE
  5
142
100
AcDbEntity
100
AcDbLine
  8
graduations
 62
256
370
-1
  6
ByLayer
 10
9.5
 20
49.0
 30
0.0
 11
9.5
 21
43.0
 31
0.0
  0
LINE
  5
143
100
AcDbEntity
100
AcDbLine
  8
graduations
 62
256
370
-1
  6
ByLayer
 10
8.5
 20
49.0
 30
0.0
 11
8.5
 21
43.0
 31
0.0
  0
LINE
  5
144
100
AcDbEntity
100
AcDbLine
  8
graduations
 62
256
370
-1
  6
ByLayer
 10
7.5
 20
49.0
 30
0.0
 11
7.5
 21
43.0
 31
0.0
  0
LINE
  5
145
100
AcDbEntity
100
AcDbLine
  8
graduations
 62
256
370
-1
  6
ByLayer
 10
6.5
 20
49.0
 30
0.0
 11
6.5
 21
43.0
 31
0.0
  0
LINE
  5
146
100
AcDbEntity
100
AcDbLine
  8
graduations
 62
256
370
-1
  6
ByLayer
 10
5.5
 20
49.0
 30
0.0
 11
5.5
 21
43.0
 31
0.0
  0
LINE
  5
147
100
AcDbEntity
100
AcDbLine
  8
graduations
 62
256
370
-1
  6
ByLayer
 10
4.5
 20
49.0
 30
0.0
 11
4.5
 21
43.0
 31
0.0
  0
LINE
  5
148
100
AcDbEntity
100
AcDbLine
  8
graduations
 62
256
370
-1
  6
ByLayer
 10
3.5
 20
49.0
 30
0.0
 11
3.5
 21
43.0
 31
0.0
  0
LINE
  5
149
100
AcDbEntity
100
AcDbLine
  8
graduations
 62
256
370
-1
  6
ByLayer
 10
2.5
 20
49.0
 30
0.0
 11
2.5
 21
43.0
 31
0.0
  0
LINE
  5
14A
100
AcDbEntity
100
AcDbLine
  8
graduations
 62
256
370
-1
  6
ByLayer
 10
1.5
 20
49.0
 30
0.0
 11
1.5
 21
43.0
 31
0.0
  0
LINE
  5
14B
100
AcDbEntity
100
AcDbLine
  8
graduations
 62
256
370
-1
  6
ByLayer
 10
0.5
 20
49.0
 30
0.0
 11
0.5
 21
43.0
 31
0.0
  0
LINE
  5
14C
100
AcDbEntity
100
AcDbLine
  8
graduations
 62
256
370
-1
  6
ByLayer
 10
79.5
 20
49.0
 30
0.0
 11
79.5
 21
43.0
 31
0.0
  0
LINE
  5
14D
100
AcDbEntity
100
AcDbLine
  8
Contours
 62
256
370
-1
  6
ByLayer
 10
79.75
 20
47.5
 30
0.0
 11
79.75
 21
44.5
 31
0.0
  0
LINE
  5
14E
100
AcDbEntity
100
AcDbLine
  8
Contours
 62
256
370
-1
  6
ByLayer
 10
79.25
 20
47.5
 30
0.0
 11
79.25
 21
44.5
 31
0.0
  0
LINE
  5
14F
100
AcDbEntity
100
AcDbLine
  8
Contours
 62
256
370
-1
  6
ByLayer
 10
78.75
 20
47.5
 30
0.0
 11
78.75
 21
44.5
 31
0.0
  0
LINE
  5
150
100
AcDbEntity
100
AcDbLine
  8
Contours
 62
256
370
-1
  6
ByLayer
 10
78.25
 20
47.5
 30
0.0
 11
78.25
 21
44.5
 31
0.0
  0
LINE
  5
151
100
AcDbEntity
100
AcDbLine
  8
Contours
 62
256
370
-1
  6
ByLayer
 10
77.75
 20
47.5
 30
0.0
 11
77.75
 21
44.5
 31
0.0
  0
LINE
  5
152
100
AcDbEntity
100
AcDbLine
  8
Contours
 62
256
370
-1
  6
ByLayer
 10
77.25
 20
47.5
 30
0.0
 11
77.25
 21
44.5
 31
0.0
  0
LINE
  5
153
100
AcDbEntity
100
AcDbLine
  8
Contours
 62
256
370
-1
  6
ByLayer
 10
76.75
 20
47.5
 30
0.0
 11
76.75
 21
44.5
 31
0.0
  0
LINE
  5
154
100
AcDbEntity
100
AcDbLine
  8
Contours
 62
256
370
-1
  6
ByLayer
 10
76.25
 20
47.5
 30
0.0
 11
76.25
 21
44.5
 31
0.0
  0
LINE
  5
155
100
AcDbEntity
100
AcDbLine
  8
Contours
 62
256
370
-1
  6
ByLayer
 10
75.75
 20
47.5
 30
0.0
 11
75.75
 21
44.5
 31
0.0
  0
LINE
  5
156
100
AcDbEntity
100
AcDbLine
  8
Contours
 62
256
370
-1
  6
ByLayer
 10
75.25
 20
47.5
 30
0.0
 11
75.25
 21
44.5
 31
0.0
  0
LINE
  5
157
100
AcDbEntity
100
AcDbLine
  8
Contours
 62
256
370
-1
  6
ByLayer
 10
74.75
 20
47.5
 30
0.0
 11
74.75
 21
44.5
 31
0.0
  0
LINE
  5
158
100
AcDbEntity
100
AcDbLine
  8
Contours
 62
256
370
-1
  6
ByLayer
 10
74.25
 20
47.5
 30
0.0
 11
74.25
 21
44.5
 31
0.0
  0
LINE
  5
159
100
AcDbEntity
100
AcDbLine
  8
Contours
 62
256
370
-1
  6
ByLayer
 10
73.75
 20
47.5
 30
0.0
 11
73.75
 21
44.5
 31
0.0
  0
LINE
  5
15A
100
AcDbEntity
100
AcDbLine
  8
Contours
 62
256
370
-1
  6
ByLayer
 10
73.25
 20
47.5
 30
0.0
 11
73.25
 21
44.5
 31
0.0
  0
LINE
  5
15B
100
AcDbEntity
100
AcDbLine
  8
Contours
 62
256
370
-1
  6
ByLayer
 10
72.75
 20
47.5
 30
0.0
 11
72.75
 21
44.5
 31
0.0
  0
LINE
  5
15C
100
AcDbEntity
100
AcDbLine
  8
Contours
 62
256
370
-1
  6
ByLayer
 10
72.25
 20
47.5
 30
0.0
 11
72.25
 21
44.5
 31
0.0
  0
LINE
  5
15D
100
AcDbEntity
100
AcDbLine
  8
Contours
 62
256
370
-1
  6
ByLayer
 10
71.75
 20
47.5
 30
0.0
 11
71.75
 21
44.5
 31
0.0
  0
LINE
  5
15E
100
AcDbEntity
100
AcDbLine
  8
Contours
 62
256
370
-1
  6
ByLayer
 10
71.25
 20
47.5
 30
0.0
 11
71.25
 21
44.5
 31
0.0
  0
LINE
  5
15F
100
AcDbEntity
100
AcDbLine
  8
Contours
 62
256
370
-1
  6
ByLayer
 10
70.75
 20
47.5
 30
0.0
 11
70.75
 21
44.5
 31
0.0
  0
LINE
  5
160
100
AcDbEntity
100
AcDbLine
  8
Contours
 62
256
370
-1
  6
ByLayer
 10
70.25
 20
47.5
 30
0.0
 11
70.25
 21
44.5
 31
0.0
  0
LINE
  5
161
100
AcDbEntity
100
AcDbLine
  8
Contours
 62
256
370
-1
  6
ByLayer
 10
69.75
 20
47.5
 30
0.0
 11
69.75
 21
44.5
 31
0.0
  0
LINE
  5
162
100
AcDbEntity
100
AcDbLine
  8
Contours
 62
256
370
-1
  6
ByLayer
 10
69.25
 20
47.5
 30
0.0
 11
69.25
 21
44.5
 31
0.0
  0
LINE
  5
163
100
AcDbEntity
100
AcDbLine
  8
Contours
 62
256
370
-1
  6
ByLayer
 10
68.75
 20
47.5
 30
0.0
 11
68.75
 21
44.5
 31
0.0
  0
LINE
  5
164
100
AcDbEntity
100
AcDbLine
  8
Contours
 62
256
370
-1
  6
ByLayer
 10
68.25
 20
47.5
 30
0.0
 11
68.25
 21
44.5
 31
0.0
  0
LINE
  5
165
100
AcDbEntity
100
AcDbLine
  8
Contours
 62
256
370
-1
  6
ByLayer
 10
67.75
 20
47.5
 30
0.0
 11
67.75
 21
44.5
 31
0.0
  0
LINE
  5
166
100
AcDbEntity
100
AcDbLine
  8
Contours
 62
256
370
-1
  6
ByLayer
 10
67.25
 20
47.5
 30
0.0
 11
67.25
 21
44.5
 31
0.0
  0
LINE
  5
167
100
AcDbEntity
100
AcDbLine
  8
Contours
 62
256
370
-1
  6
ByLayer
 10
66.75
 20
47.5
 30
0.0
 11
66.75
 21
44.5
 31
0.0
  0
LINE
  5
168
100
AcDbEntity
100
AcDbLine
  8
Contours
 62
256
370
-1
  6
ByLayer
 10
66.25
 20
47.5
 30
0.0
 11
66.25
 21
44.5
 31
0.0
  0
LINE
  5
169
100
AcDbEntity
100
AcDbLine
  8
Contours
 62
256
370
-1
  6
ByLayer
 10
65.75
 20
47.5
 30
0.0
 11
65.75
 21
44.5
 31
0.0
  0
LINE
  5
16A
100
AcDbEntity
100
AcDbLine
  8
Contours
 62
256
370
-1
  6
ByLayer
 10
65.25
 20
47.5
 30
0.0
 11
65.25
 21
44.5
 31
0.0
  0
LINE
  5
16B
100
AcDbEntity
100
AcDbLine
  8
Contours
 62
256
370
-1
  6
ByLayer
 10
64.75
 20
47.5
 30
0.0
 11
64.75
 21
44.5
 31
0.0
  0
LINE
  5
16C
100
AcDbEntity
100
AcDbLine
  8
Contours
 62
256
370
-1
  6
ByLayer
 10
64.25
 20
47.5
 30
0.0
 11
64.25
 21
44.5
 31
0.0
  0
LINE
  5
16D
100
AcDbEntity
100
AcDbLine
  8
Contours
 62
256
370
-1
  6
ByLayer
 10
63.75
 20
47.5
 30
0.0
 11
63.75
 21
44.5
 31
0.0
  0
LINE
  5
16E
100
AcDbEntity
100
AcDbLine
  8
Contours
 62
256
370
-1
  6
ByLayer
 10
63.25
 20
47.5
 30
0.0
 11
63.25
 21
44.5
 31
0.0
  0
LINE
  5
16F
100
AcDbEntity
100
AcDbLine
  8
Contours
 62
256
370
-1
  6
ByLayer
 10
62.75
 20
47.5
 30
0.0
 11
62.75
 21
44.5
 31
0.0
  0
LINE
  5
170
100
AcDbEntity
100
AcDbLine
  8
Contours
 62
256
370
-1
  6
ByLayer
 10
62.25
 20
47.5
 30
0.0
 11
62.25
 21
44.5
 31
0.0
  0
LINE
  5
171
100
AcDbEntity
100
AcDbLine
  8
Contours
 62
256
370
-1
  6
ByLayer
 10
61.75
 20
47.5
 30
0.0
 11
61.75
 21
44.5
 31
0.0
  0
LINE
  5
172
100
AcDbEntity
100
AcDbLine
  8
Contours
 62
256
370
-1
  6
ByLayer
 10
61.25
 20
47.5
 30
0.0
 11
61.25
 21
44.5
 31
0.0
  0
LINE
  5
173
100
AcDbEntity
100
AcDbLine
  8
Contours
 62
256
370
-1
  6
ByLayer
 10
60.75
 20
47.5
 30
0.0
 11
60.75
 21
44.5
 31
0.0
  0
LINE
  5
174
100
AcDbEntity
100
AcDbLine
  8
Contours
 62
256
370
-1
  6
ByLayer
 10
60.25
 20
47.5
 30
0.0
 11
60.25
 21
44.5
 31
0.0
  0
LINE
  5
175
100
AcDbEntity
100
AcDbLine
  8
Contours
 62
256
370
-1
  6
ByLayer
 10
59.75
 20
47.5
 30
0.0
 11
59.75
 21
44.5
 31
0.0
  0
LINE
  5
176
100
AcDbEntity
100
AcDbLine
  8
Contours
 62
256
370
-1
  6
ByLayer
 10
59.25
 20
47.5
 30
0.0
 11
59.25
 21
44.5
 31
0.0
  0
LINE
  5
177
100
AcDbEntity
100
AcDbLine
  8
Contours
 62
256
370
-1
  6
ByLayer
 10
58.75
 20
47.5
 30
0.0
 11
58.75
 21
44.5
 31
0.0
  0
LINE
  5
178
100
AcDbEntity
100
AcDbLine
  8
Contours
 62
256
370
-1
  6
ByLayer
 10
58.25
 20
47.5
 30
0.0
 11
58.25
 21
44.5
 31
0.0
  0
LINE
  5
179
100
AcDbEntity
100
AcDbLine
  8
Contours
 62
256
370
-1
  6
ByLayer
 10
57.75
 20
47.5
 30
0.0
 11
57.75
 21
44.5
 31
0.0
  0
LINE
  5
17A
100
AcDbEntity
100
AcDbLine
  8
Contours
 62
256
370
-1
  6
ByLayer
 10
57.25
 20
47.5
 30
0.0
 11
57.25
 21
44.5
 31
0.0
  0
LINE
  5
17B
100
AcDbEntity
100
AcDbLine
  8
Contours
 62
256
370
-1
  6
ByLayer
 10
56.75
 20
47.5
 30
0.0
 11
56.75
 21
44.5
 31
0.0
  0
LINE
  5
17C
100
AcDbEntity
100
AcDbLine
  8
Contours
 62
256
370
-1
  6
ByLayer
 10
56.25
 20
47.5
 30
0.0
 11
56.25
 21
44.5
 31
0.0
  0
LINE
  5
17D
100
AcDbEntity
100
AcDbLine
  8
Contours
 62
256
370
-1
  6
ByLayer
 10
55.75
 20
47.5
 30
0.0
 11
55.75
 21
44.5
 31
0.0
  0
LINE
  5
17E
100
AcDbEntity
100
AcDbLine
  8
Contours
 62
256
370
-1
  6
ByLayer
 10
55.25
 20
47.5
 30
0.0
 11
55.25
 21
44.5
 31
0.0
  0
LINE
  5
17F
100
AcDbEntity
100
AcDbLine
  8
Contours
 62
256
370
-1
  6
ByLayer
 10
54.75
 20
47.5
 30
0.0
 11
54.75
 21
44.5
 31
0.0
  0
LINE
  5
180
100
AcDbEntity
100
AcDbLine
  8
Contours
 62
256
370
-1
  6
ByLayer
 10
54.25
 20
47.5
 30
0.0
 11
54.25
 21
44.5
 31
0.0
  0
LINE
  5
181
100
AcDbEntity
100
AcDbLine
  8
Contours
 62
256
370
-1
  6
ByLayer
 10
53.75
 20
47.5
 30
0.0
 11
53.75
 21
44.5
 31
0.0
  0
LINE
  5
182
100
AcDbEntity
100
AcDbLine
  8
Contours
 62
256
370
-1
  6
ByLayer
 10
53.25
 20
47.5
 30
0.0
 11
53.25
 21
44.5
 31
0.0
  0
LINE
  5
183
100
AcDbEntity
100
AcDbLine
  8
Contours
 62
256
370
-1
  6
ByLayer
 10
52.75
 20
47.5
 30
0.0
 11
52.75
 21
44.5
 31
0.0
  0
LINE
  5
184
100
AcDbEntity
100
AcDbLine
  8
Contours
 62
256
370
-1
  6
ByLayer
 10
52.25
 20
47.5
 30
0.0
 11
52.25
 21
44.5
 31
0.0
  0
LINE
  5
185
100
AcDbEntity
100
AcDbLine
  8
Contours
 62
256
370
-1
  6
ByLayer
 10
51.75
 20
47.5
 30
0.0
 11
51.75
 21
44.5
 31
0.0
  0
LINE
  5
186
100
AcDbEntity
100
AcDbLine
  8
Contours
 62
256
370
-1
  6
ByLayer
 10
51.25
 20
47.5
 30
0.0
 11
51.25
 21
44.5
 31
0.0
  0
LINE
  5
187
100
AcDbEntity
100
AcDbLine
  8
Contours
 62
256
370
-1
  6
ByLayer
 10
50.75
 20
47.5
 30
0.0
 11
50.75
 21
44.5
 31
0.0
  0
LINE
  5
188
100
AcDbEntity
100
AcDbLine
  8
Contours
 62
256
370
-1
  6
ByLayer
 10
50.25
 20
47.5
 30
0.0
 11
50.25
 21
44.5
 31
0.0
  0
LINE
  5
189
100
AcDbEntity
100
AcDbLine
  8
Contours
 62
256
370
-1
  6
ByLayer
 10
49.75
 20
47.5
 30
0.0
 11
49.75
 21
44.5
 31
0.0
  0
LINE
  5
18A
100
AcDbEntity
100
AcDbLine
  8
Contours
 62
256
370
-1
  6
ByLayer
 10
49.25
 20
47.5
 30
0.0
 11
49.25
 21
44.5
 31
0.0
  0
LINE
  5
18B
100
AcDbEntity
100
AcDbLine
  8
Contours
 62
256
370
-1
  6
ByLayer
 10
48.75
 20
47.5
 30
0.0
 11
48.75
 21
44.5
 31
0.0
  0
LINE
  5
18C
100
AcDbEntity
100
AcDbLine
  8
Contours
 62
256
370
-1
  6
ByLayer
 10
48.25
 20
47.5
 30
0.0
 11
48.25
 21
44.5
 31
0.0
  0
LINE
  5
18D
100
AcDbEntity
100
AcDbLine
  8
Contours
 62
256
370
-1
  6
ByLayer
 10
47.75
 20
47.5
 30
0.0
 11
47.75
 21
44.5
 31
0.0
  0
LINE
  5
18E
100
AcDbEntity
100
AcDbLine
  8
Contours
 62
256
370
-1
  6
ByLayer
 10
47.25
 20
47.5
 30
0.0
 11
47.25
 21
44.5
 31
0.0
  0
LINE
  5
18F
100
AcDbEntity
100
AcDbLine
  8
Contours
 62
256
370
-1
  6
ByLayer
 10
46.75
 20
47.5
 30
0.0
 11
46.75
 21
44.5
 31
0.0
  0
LINE
  5
190
100
AcDbEntity
100
AcDbLine
  8
Contours
 62
256
370
-1
  6
ByLayer
 10
46.25
 20
47.5
 30
0.0
 11
46.25
 21
44.5
 31
0.0
  0
LINE
  5
191
100
AcDbEntity
100
AcDbLine
  8
Contours
 62
256
370
-1
  6
ByLayer
 10
45.75
 20
47.5
 30
0.0
 11
45.75
 21
44.5
 31
0.0
  0
LINE
  5
192
100
AcDbEntity
100
AcDbLine
  8
Contours
 62
256
370
-1
  6
ByLayer
 10
45.25
 20
47.5
 30
0.0
 11
45.25
 21
44.5
 31
0.0
  0
LINE
  5
193
100
AcDbEntity
100
AcDbLine
  8
Contours
 62
256
370
-1
  6
ByLayer
 10
44.75
 20
47.5
 30
0.0
 11
44.75
 21
44.5
 31
0.0
  0
LINE
  5
194
100
AcDbEntity
100
AcDbLine
  8
Contours
 62
256
370
-1
  6
ByLayer
 10
44.25
 20
47.5
 30
0.0
 11
44.25
 21
44.5
 31
0.0
  0
LINE
  5
195
100
AcDbEntity
100
AcDbLine
  8
Contours
 62
256
370
-1
  6
ByLayer
 10
43.75
 20
47.5
 30
0.0
 11
43.75
 21
44.5
 31
0.0
  0
LINE
  5
196
100
AcDbEntity
100
AcDbLine
  8
Contours
 62
256
370
-1
  6
ByLayer
 10
43.25
 20
47.5
 30
0.0
 11
43.25
 21
44.5
 31
0.0
  0
LINE
  5
197
100
AcDbEntity
100
AcDbLine
  8
Contours
 62
256
370
-1
  6
ByLayer
 10
42.75
 20
47.5
 30
0.0
 11
42.75
 21
44.5
 31
0.0
  0
LINE
  5
198
100
AcDbEntity
100
AcDbLine
  8
Contours
 62
256
370
-1
  6
ByLayer
 10
42.25
 20
47.5
 30
0.0
 11
42.25
 21
44.5
 31
0.0
  0
LINE
  5
199
100
AcDbEntity
100
AcDbLine
  8
Contours
 62
256
370
-1
  6
ByLayer
 10
41.75
 20
47.5
 30
0.0
 11
41.75
 21
44.5
 31
0.0
  0
LINE
  5
19A
100
AcDbEntity
100
AcDbLine
  8
Contours
 62
256
370
-1
  6
ByLayer
 10
41.25
 20
47.5
 30
0.0
 11
41.25
 21
44.5
 31
0.0
  0
LINE
  5
19B
100
AcDbEntity
100
AcDbLine
  8
Contours
 62
256
370
-1
  6
ByLayer
 10
40.75
 20
47.5
 30
0.0
 11
40.75
 21
44.5
 31
0.0
  0
LINE
  5
19C
100
AcDbEntity
100
AcDbLine
  8
Contours
 62
256
370
-1
  6
ByLayer
 10
40.25
 20
47.5
 30
0.0
 11
40.25
 21
44.5
 31
0.0
  0
LINE
  5
19D
100
AcDbEntity
100
AcDbLine
  8
Contours
 62
256
370
-1
  6
ByLayer
 10
39.75
 20
47.5
 30
0.0
 11
39.75
 21
44.5
 31
0.0
  0
LINE
  5
19E
100
AcDbEntity
100
AcDbLine
  8
Contours
 62
256
370
-1
  6
ByLayer
 10
39.25
 20
47.5
 30
0.0
 11
39.25
 21
44.5
 31
0.0
  0
LINE
  5
19F
100
AcDbEntity
100
AcDbLine
  8
Contours
 62
256
370
-1
  6
ByLayer
 10
38.75
 20
47.5
 30
0.0
 11
38.75
 21
44.5
 31
0.0
  0
LINE
  5
1A0
100
AcDbEntity
100
AcDbLine
  8
Contours
 62
256
370
-1
  6
ByLayer
 10
38.25
 20
47.5
 30
0.0
 11
38.25
 21
44.5
 31
0.0
  0
LINE
  5
1A1
100
AcDbEntity
100
AcDbLine
  8
Contours
 62
256
370
-1
  6
ByLayer
 10
37.75
 20
47.5
 30
0.0
 11
37.75
 21
44.5
 31
0.0
  0
LINE
  5
1A2
100
AcDbEntity
100
AcDbLine
  8
Contours
 62
256
370
-1
  6
ByLayer
 10
37.25
 20
47.5
 30
0.0
 11
37.25
 21
44.5
 31
0.0
  0
LINE
  5
1A3
100
AcDbEntity
100
AcDbLine
  8
Contours
 62
256
370
-1
  6
ByLayer
 10
36.75
 20
47.5
 30
0.0
 11
36.75
 21
44.5
 31
0.0
  0
LINE
  5
1A4
100
AcDbEntity
100
AcDbLine
  8
Contours
 62
256
370
-1
  6
ByLayer
 10
36.25
 20
47.5
 30
0.0
 11
36.25
 21
44.5
 31
0.0
  0
LINE
  5
1A5
100
AcDbEntity
100
AcDbLine
  8
Contours
 62
256
370
-1
  6
ByLayer
 10
35.75
 20
47.5
 30
0.0
 11
35.75
 21
44.5
 31
0.0
  0
LINE
  5
1A6
100
AcDbEntity
100
AcDbLine
  8
Contours
 62
256
370
-1
  6
ByLayer
 10
35.25
 20
47.5
 30
0.0
 11
35.25
 21
44.5
 31
0.0
  0
LINE
  5
1A7
100
AcDbEntity
100
AcDbLine
  8
Contours
 62
256
370
-1
  6
ByLayer
 10
34.75
 20
47.5
 30
0.0
 11
34.75
 21
44.5
 31
0.0
  0
LINE
  5
1A8
100
AcDbEntity
100
AcDbLine
  8
Contours
 62
256
370
-1
  6
ByLayer
 10
34.25
 20
47.5
 30
0.0
 11
34.25
 21
44.5
 31
0.0
  0
LINE
  5
1A9
100
AcDbEntity
100
AcDbLine
  8
Contours
 62
256
370
-1
  6
ByLayer
 10
33.75
 20
47.5
 30
0.0
 11
33.75
 21
44.5
 31
0.0
  0
LINE
  5
1AA
100
AcDbEntity
100
AcDbLine
  8
Contours
 62
256
370
-1
  6
ByLayer
 10
33.25
 20
47.5
 30
0.0
 11
33.25
 21
44.5
 31
0.0
  0
LINE
  5
1AB
100
AcDbEntity
100
AcDbLine
  8
Contours
 62
256
370
-1
  6
ByLayer
 10
32.75
 20
47.5
 30
0.0
 11
32.75
 21
44.5
 31
0.0
  0
LINE
  5
1AC
100
AcDbEntity
100
AcDbLine
  8
Contours
 62
256
370
-1
  6
ByLayer
 10
32.25
 20
47.5
 30
0.0
 11
32.25
 21
44.5
 31
0.0
  0
LINE
  5
1AD
100
AcDbEntity
100
AcDbLine
  8
Contours
 62
256
370
-1
  6
ByLayer
 10
31.75
 20
47.5
 30
0.0
 11
31.75
 21
44.5
 31
0.0
  0
LINE
  5
1AE
100
AcDbEntity
100
AcDbLine
  8
Contours
 62
256
370
-1
  6
ByLayer
 10
31.25
 20
47.5
 30
0.0
 11
31.25
 21
44.5
 31
0.0
  0
LINE
  5
1AF
100
AcDbEntity
100
AcDbLine
  8
Contours
 62
256
370
-1
  6
ByLayer
 10
30.75
 20
47.5
 30
0.0
 11
30.75
 21
44.5
 31
0.0
  0
LINE
  5
1B0
100
AcDbEntity
100
AcDbLine
  8
Contours
 62
256
370
-1
  6
ByLayer
 10
30.25
 20
47.5
 30
0.0
 11
30.25
 21
44.5
 31
0.0
  0
LINE
  5
1B1
100
AcDbEntity
100
AcDbLine
  8
Contours
 62
256
370
-1
  6
ByLayer
 10
29.75
 20
47.5
 30
0.0
 11
29.75
 21
44.5
 31
0.0
  0
LINE
  5
1B2
100
AcDbEntity
100
AcDbLine
  8
Contours
 62
256
370
-1
  6
ByLayer
 10
29.25
 20
47.5
 30
0.0
 11
29.25
 21
44.5
 31
0.0
  0
LINE
  5
1B3
100
AcDbEntity
100
AcDbLine
  8
Contours
 62
256
370
-1
  6
ByLayer
 10
28.75
 20
47.5
 30
0.0
 11
28.75
 21
44.5
 31
0.0
  0
LINE
  5
1B4
100
AcDbEntity
100
AcDbLine
  8
Contours
 62
256
370
-1
  6
ByLayer
 10
28.25
 20
47.5
 30
0.0
 11
28.25
 21
44.5
 31
0.0
  0
LINE
  5
1B5
100
AcDbEntity
100
AcDbLine
  8
Contours
 62
256
370
-1
  6
ByLayer
 10
27.75
 20
47.5
 30
0.0
 11
27.75
 21
44.5
 31
0.0
  0
LINE
  5
1B6
100
AcDbEntity
100
AcDbLine
  8
Contours
 62
256
370
-1
  6
ByLayer
 10
27.25
 20
47.5
 30
0.0
 11
27.25
 21
44.5
 31
0.0
  0
LINE
  5
1B7
100
AcDbEntity
100
AcDbLine
  8
Contours
 62
256
370
-1
  6
ByLayer
 10
26.75
 20
47.5
 30
0.0
 11
26.75
 21
44.5
 31
0.0
  0
LINE
  5
1B8
100
AcDbEntity
100
AcDbLine
  8
Contours
 62
256
370
-1
  6
ByLayer
 10
26.25
 20
47.5
 30
0.0
 11
26.25
 21
44.5
 31
0.0
  0
LINE
  5
1B9
100
AcDbEntity
100
AcDbLine
  8
Contours
 62
256
370
-1
  6
ByLayer
 10
25.75
 20
47.5
 30
0.0
 11
25.75
 21
44.5
 31
0.0
  0
LINE
  5
1BA
100
AcDbEntity
100
AcDbLine
  8
Contours
 62
256
370
-1
  6
ByLayer
 10
25.25
 20
47.5
 30
0.0
 11
25.25
 21
44.5
 31
0.0
  0
LINE
  5
1BB
100
AcDbEntity
100
AcDbLine
  8
Contours
 62
256
370
-1
  6
ByLayer
 10
24.75
 20
47.5
 30
0.0
 11
24.75
 21
44.5
 31
0.0
  0
LINE
  5
1BC
100
AcDbEntity
100
AcDbLine
  8
Contours
 62
256
370
-1
  6
ByLayer
 10
24.25
 20
47.5
 30
0.0
 11
24.25
 21
44.5
 31
0.0
  0
LINE
  5
1BD
100
AcDbEntity
100
AcDbLine
  8
Contours
 62
256
370
-1
  6
ByLayer
 10
23.75
 20
47.5
 30
0.0
 11
23.75
 21
44.5
 31
0.0
  0
LINE
  5
1BE
100
AcDbEntity
100
AcDbLine
  8
Contours
 62
256
370
-1
  6
ByLayer
 10
23.25
 20
47.5
 30
0.0
 11
23.25
 21
44.5
 31
0.0
  0
LINE
  5
1BF
100
AcDbEntity
100
AcDbLine
  8
Contours
 62
256
370
-1
  6
ByLayer
 10
22.75
 20
47.5
 30
0.0
 11
22.75
 21
44.5
 31
0.0
  0
LINE
  5
1C0
100
AcDbEntity
100
AcDbLine
  8
Contours
 62
256
370
-1
  6
ByLayer
 10
22.25
 20
47.5
 30
0.0
 11
22.25
 21
44.5
 31
0.0
  0
LINE
  5
1C1
100
AcDbEntity
100
AcDbLine
  8
Contours
 62
256
370
-1
  6
ByLayer
 10
21.75
 20
47.5
 30
0.0
 11
21.75
 21
44.5
 31
0.0
  0
LINE
  5
1C2
100
AcDbEntity
100
AcDbLine
  8
Contours
 62
256
370
-1
  6
ByLayer
 10
21.25
 20
47.5
 30
0.0
 11
21.25
 21
44.5
 31
0.0
  0
LINE
  5
1C3
100
AcDbEntity
100
AcDbLine
  8
Contours
 62
256
370
-1
  6
ByLayer
 10
20.75
 20
47.5
 30
0.0
 11
20.75
 21
44.5
 31
0.0
  0
LINE
  5
1C4
100
AcDbEntity
100
AcDbLine
  8
Contours
 62
256
370
-1
  6
ByLayer
 10
20.25
 20
47.5
 30
0.0
 11
20.25
 21
44.5
 31
0.0
  0
LINE
  5
1C5
100
AcDbEntity
100
AcDbLine
  8
Contours
 62
256
370
-1
  6
ByLayer
 10
19.75
 20
47.5
 30
0.0
 11
19.75
 21
44.5
 31
0.0
  0
LINE
  5
1C6
100
AcDbEntity
100
AcDbLine
  8
Contours
 62
256
370
-1
  6
ByLayer
 10
19.25
 20
47.5
 30
0.0
 11
19.25
 21
44.5
 31
0.0
  0
LINE
  5
1C7
100
AcDbEntity
100
AcDbLine
  8
Contours
 62
256
370
-1
  6
ByLayer
 10
18.75
 20
47.5
 30
0.0
 11
18.75
 21
44.5
 31
0.0
  0
LINE
  5
1C8
100
AcDbEntity
100
AcDbLine
  8
Contours
 62
256
370
-1
  6
ByLayer
 10
18.25
 20
47.5
 30
0.0
 11
18.25
 21
44.5
 31
0.0
  0
LINE
  5
1C9
100
AcDbEntity
100
AcDbLine
  8
Contours
 62
256
370
-1
  6
ByLayer
 10
17.75
 20
47.5
 30
0.0
 11
17.75
 21
44.5
 31
0.0
  0
LINE
  5
1CA
100
AcDbEntity
100
AcDbLine
  8
Contours
 62
256
370
-1
  6
ByLayer
 10
17.25
 20
47.5
 30
0.0
 11
17.25
 21
44.5
 31
0.0
  0
LINE
  5
1CB
100
AcDbEntity
100
AcDbLine
  8
Contours
 62
256
370
-1
  6
ByLayer
 10
16.75
 20
47.5
 30
0.0
 11
16.75
 21
44.5
 31
0.0
  0
LINE
  5
1CC
100
AcDbEntity
100
AcDbLine
  8
Contours
 62
256
370
-1
  6
ByLayer
 10
16.25
 20
47.5
 30
0.0
 11
16.25
 21
44.5
 31
0.0
  0
LINE
  5
1CD
100
AcDbEntity
100
AcDbLine
  8
Contours
 62
256
370
-1
  6
ByLayer
 10
15.75
 20
47.5
 30
0.0
 11
15.75
 21
44.5
 31
0.0
  0
LINE
  5
1CE
100
AcDbEntity
100
AcDbLine
  8
Contours
 62
256
370
-1
  6
ByLayer
 10
15.25
 20
47.5
 30
0.0
 11
15.25
 21
44.5
 31
0.0
  0
LINE
  5
1CF
100
AcDbEntity
100
AcDbLine
  8
Contours
 62
256
370
-1
  6
ByLayer
 10
14.75
 20
47.5
 30
0.0
 11
14.75
 21
44.5
 31
0.0
  0
LINE
  5
1D0
100
AcDbEntity
100
AcDbLine
  8
Contours
 62
256
370
-1
  6
ByLayer
 10
14.25
 20
47.5
 30
0.0
 11
14.25
 21
44.5
 31
0.0
  0
LINE
  5
1D1
100
AcDbEntity
100
AcDbLine
  8
Contours
 62
256
370
-1
  6
ByLayer
 10
13.75
 20
47.5
 30
0.0
 11
13.75
 21
44.5
 31
0.0
  0
LINE
  5
1D2
100
AcDbEntity
100
AcDbLine
  8
Contours
 62
256
370
-1
  6
ByLayer
 10
13.25
 20
47.5
 30
0.0
 11
13.25
 21
44.5
 31
0.0
  0
LINE
  5
1D3
100
AcDbEntity
100
AcDbLine
  8
Contours
 62
256
370
-1
  6
ByLayer
 10
12.75
 20
47.5
 30
0.0
 11
12.75
 21
44.5
 31
0.0
  0
LINE
  5
1D4
100
AcDbEntity
100
AcDbLine
  8
Contours
 62
256
370
-1
  6
ByLayer
 10
12.25
 20
47.5
 30
0.0
 11
12.25
 21
44.5
 31
0.0
  0
LINE
  5
1D5
100
AcDbEntity
100
AcDbLine
  8
Contours
 62
256
370
-1
  6
ByLayer
 10
11.75
 20
47.5
 30
0.0
 11
11.75
 21
44.5
 31
0.0
  0
LINE
  5
1D6
100
AcDbEntity
100
AcDbLine
  8
Contours
 62
256
370
-1
  6
ByLayer
 10
11.25
 20
47.5
 30
0.0
 11
11.25
 21
44.5
 31
0.0
  0
LINE
  5
1D7
100
AcDbEntity
100
AcDbLine
  8
Contours
 62
256
370
-1
  6
ByLayer
 10
10.75
 20
47.5
 30
0.0
 11
10.75
 21
44.5
 31
0.0
  0
LINE
  5
1D8
100
AcDbEntity
100
AcDbLine
  8
Contours
 62
256
370
-1
  6
ByLayer
 10
10.25
 20
47.5
 30
0.0
 11
10.25
 21
44.5
 31
0.0
  0
LINE
  5
1D9
100
AcDbEntity
100
AcDbLine
  8
Contours
 62
256
370
-1
  6
ByLayer
 10
9.75
 20
47.5
 30
0.0
 11
9.75
 21
44.5
 31
0.0
  0
LINE
  5
1DA
100
AcDbEntity
100
AcDbLine
  8
Contours
 62
256
370
-1
  6
ByLayer
 10
9.25
 20
47.5
 30
0.0
 11
9.25
 21
44.5
 31
0.0
  0
LINE
  5
1DB
100
AcDbEntity
100
AcDbLine
  8
Contours
 62
256
370
-1
  6
ByLayer
 10
8.75
 20
47.5
 30
0.0
 11
8.75
 21
44.5
 31
0.0
  0
LINE
  5
1DC
100
AcDbEntity
100
AcDbLine
  8
Contours
 62
256
370
-1
  6
ByLayer
 10
8.25
 20
47.5
 30
0.0
 11
8.25
 21
44.5
 31
0.0
  0
LINE
  5
1DD
100
AcDbEntity
100
AcDbLine
  8
Contours
 62
256
370
-1
  6
ByLayer
 10
7.75
 20
47.5
 30
0.0
 11
7.75
 21
44.5
 31
0.0
  0
LINE
  5
1DE
100
AcDbEntity
100
AcDbLine
  8
Contours
 62
256
370
-1
  6
ByLayer
 10
7.25
 20
47.5
 30
0.0
 11
7.25
 21
44.5
 31
0.0
  0
LINE
  5
1DF
100
AcDbEntity
100
AcDbLine
  8
Contours
 62
256
370
-1
  6
ByLayer
 10
6.75
 20
47.5
 30
0.0
 11
6.75
 21
44.5
 31
0.0
  0
LINE
  5
1E0
100
AcDbEntity
100
AcDbLine
  8
Contours
 62
256
370
-1
  6
ByLayer
 10
6.25
 20
47.5
 30
0.0
 11
6.25
 21
44.5
 31
0.0
  0
LINE
  5
1E1
100
AcDbEntity
100
AcDbLine
  8
Contours
 62
256
370
-1
  6
ByLayer
 10
5.75
 20
47.5
 30
0.0
 11
5.75
 21
44.5
 31
0.0
  0
LINE
  5
1E2
100
AcDbEntity
100
AcDbLine
  8
Contours
 62
256
370
-1
  6
ByLayer
 10
5.25
 20
47.5
 30
0.0
 11
5.25
 21
44.5
 31
0.0
  0
LINE
  5
1E3
100
AcDbEntity
100
AcDbLine
  8
Contours
 62
256
370
-1
  6
ByLayer
 10
4.75
 20
47.5
 30
0.0
 11
4.75
 21
44.5
 31
0.0
  0
LINE
  5
1E4
100
AcDbEntity
100
AcDbLine
  8
Contours
 62
256
370
-1
  6
ByLayer
 10
4.25
 20
47.5
 30
0.0
 11
4.25
 21
44.5
 31
0.0
  0
LINE
  5
1E5
100
AcDbEntity
100
AcDbLine
  8
Contours
 62
256
370
-1
  6
ByLayer
 10
3.75
 20
47.5
 30
0.0
 11
3.75
 21
44.5
 31
0.0
  0
LINE
  5
1E6
100
AcDbEntity
100
AcDbLine
  8
Contours
 62
256
370
-1
  6
ByLayer
 10
3.25
 20
47.5
 30
0.0
 11
3.25
 21
44.5
 31
0.0
  0
LINE
  5
1E7
100
AcDbEntity
100
AcDbLine
  8
Contours
 62
256
370
-1
  6
ByLayer
 10
2.75
 20
47.5
 30
0.0
 11
2.75
 21
44.5
 31
0.0
  0
LINE
  5
1E8
100
AcDbEntity
100
AcDbLine
  8
Contours
 62
256
370
-1
  6
ByLayer
 10
2.25
 20
47.5
 30
0.0
 11
2.25
 21
44.5
 31
0.0
  0
LINE
  5
1E9
100
AcDbEntity
100
AcDbLine
  8
Contours
 62
256
370
-1
  6
ByLayer
 10
1.75
 20
47.5
 30
0.0
 11
1.75
 21
44.5
 31
0.0
  0
LINE
  5
1EA
100
AcDbEntity
100
AcDbLine
  8
Contours
 62
256
370
-1
  6
ByLayer
 10
1.25
 20
47.5
 30
0.0
 11
1.25
 21
44.5
 31
0.0
  0
LINE
  5
1EB
100
AcDbEntity
100
AcDbLine
  8
Contours
 62
256
370
-1
  6
ByLayer
 10
0.75
 20
47.5
 30
0.0
 11
0.75
 21
44.5
 31
0.0
  0
LINE
  5
1EC
100
AcDbEntity
100
AcDbLine
  8
Contours
 62
256
370
-1
  6
ByLayer
 10
0.25
 20
47.5
 30
0.0
 11
0.25
 21
44.5
 31
0.0
  0
MTEXT
  5
1ED
100
AcDbEntity
100
AcDbMText
  8
graduations
 62
256
370
35
  6
ByLayer
 10
12.185600000000418
 20
27.443200000000942
 30
0.0
 40
4.0
 41
100.0
 71
1
 72
2
  1
String\~Action\~Gauge
  7
standard
 50
0.0
 73
1
 44
1.0
  0
MTEXT
  5
1EE
100
AcDbEntity
100
AcDbMText
  8
graduations
 62
256
370
35
  6
ByLayer
 10
21.196800000000728
 20
21.50400000000074
 30
0.0
 40
4.0
 41
100.0
 71
1
 72
2
  1
Jauge\~d'action
  7
standard
 50
0.0
 73
1
 44
1.0
  0
MTEXT
  5
1EF
100
AcDbEntity
100
AcDbMText
  8
graduations
 62
256
370
25
  6
ByLayer
 10
60.963200000002203
 20
32.768000000001017
 30
0.0
 40
4.0
 41
100.0
 71
1
 72
2
  1
2
  7
standard
 50
180.0
 73
1
 44
1.0
  0
MTEXT
  5
1F0
100
AcDbEntity
100
AcDbMText
  8
graduations
 62
256
370
25
  6
ByLayer
 10
50.963200000002203
 20
32.768000000001017
 30
0.0
 40
4.0
 41
100.0
 71
1
 72
2
  1
3
  7
standard
 50
180.0
 73
1
 44
1.0
  0
MTEXT
  5
1F1
100
AcDbEntity
100
AcDbMText
  8
graduations
 62
256
370
25
  6
ByLayer
 10
40.963200000002203
 20
32.768000000001017
 30
0.0
 40
4.0
 41
100.0
 71
1
 72
2
  1
4
  7
standard
 50
180.0
 73
1
 44
1.0
  0
MTEXT
  5
1F2
100
AcDbEntity
100
AcDbMText
  8
graduations
 62
256
370
25
  6
ByLayer
 10
30.963200000002203
 20
32.768000000001017
 30
0.0
 40
4.0
 41
100.0
 71
1
 72
2
  1
5
  7
standard
 50
180.0
 73
1
 44
1.0
  0
MTEXT
  5
1F3
100
AcDbEntity
100
AcDbMText
  8
graduations
 62
256
370
25
  6
ByLayer
 10
20.963200000002203
 20
32.768000000001017
 30
0.0
 40
4.0
 41
100.0
 71
1
 72
2
  1
6
  7
standard
 50
180.0
 73
1
 44
1.0
  0
MTEXT
  5
1F4
100
AcDbEntity
100
AcDbMText
  8
graduations
 62
256
370
25
  6
ByLayer
 10
10.963200000002203
 20
32.768000000001017
 30
0.0
 40
4.0
 41
100.0
 71
1
 72
2
  1
7
  7
standard
 50
180.0
 73
1
 44
1.0
  0
MTEXT
  5
1F5
100
AcDbEntity
100
AcDbMText
  8
graduations
 62
256
370
25
  6
ByLayer
 10
2.4632000000022032
 20
32.768000000001017
 30
0.0
 40
4.0
 41
100.0
 71
1
 72
2
  1
8
  7
standard
 50
180.0
 73
1
 44
1.0
  0
MTEXT
  5
1F6
100
AcDbEntity
100
AcDbMText
  8
graduations
 62
256
370
25
  6
ByLayer
 10
70.963200000002203
 20
32.768000000001017
 30
0.0
 40
4.0
 41
100.0
 71
1
 72
2
  1
1
  7
standard
 50
180.0
 73
1
 44
1.0
  0
LINE
  5
1F7
100
AcDbEntity
100
AcDbLine
  8
Epures
 62
256
370
-1
  6
ByLayer
 10
100.0
 20
0.0
 30
0.0
 11
180.0
 21
0.0
 31
0.0
  0
LINE
  5
1F8
100
AcDbEntity
100
AcDbLine
  8
Epures
 62
256
370
-1
  6
ByLayer
 10
180.0
 20
0.0
 30
0.0
 11
180.0
 21
50.0
 31
0.0
  0
LINE
  5
1F9
100
AcDbEntity
100
AcDbLine
  8
Epures
 62
256
370
-1
  6
ByLayer
 10
180.0
 20
50.0
 30
0.0
 11
100.0
 21
50.0
 31
0.0
  0
LINE
  5
1FA
100
AcDbEntity
100
AcDbLine
  8
Epures
 62
256
370
-1
  6
ByLayer
 10
100.0
 20
50.0
 30
0.0
 11
100.0
 21
0.0
 31
0.0
  0
LINE
  5
1FB
100
AcDbEntity
100
AcDbLine
  8
Epures
 62
256
370
30
  6
ByLayer
 10
173.65771812080547
 20
0.0
 30
0.0
 11
173.65771812080547
 21
50.0
 31
0.0
  0
LINE
  5
1FC
100
AcDbEntity
100
AcDbLine
  8
Epures
 62
256
370
30
  6
ByLayer
 10
100.0
 20
25.0
 30
0.0
 11
173.65771812080547
 21
25.0
 31
0.0
  0
MTEXT
  5
1FD
100
AcDbEntity
100
AcDbMText
  8
Epures
 62
256
370
25
  6
ByLayer
 10
176.98581336173996
 20
24.264811859548473
 30
0.0
 40
3.0
 41
100.0
 71
5
 72
2
  1
Fraction-Decimal-mm
  7
standard
 50
-90.0
 73
0
 44
1.0
  0
MTEXT
  5
1FE
100
AcDbEntity
100
AcDbMText
  8
Epures
 62
256
370
30
  6
ByLayer
 10
172.20925964765127
 20
47.845008389261821
 30
0.0
 40
1.3999999999999999
 41
100.0
 71
1
 72
2
  3
1/64\~\~\~0,0156\~\~\~0,4\P1/32\~\~\~0,0313\~\~\~0,8\P3/64\~\~\~0,0469\~\~\~1,2\P1/16\~\~\~\~0,0625\~\~\~1,6\P5/64\~\~\~0,0781\~\~\~2,0\P3/32\~\~\~0,0938\~\~\~2,4\P7/64\~\~\~0,1094\~\~\~2,8\P1/8\~\~\~\~\~0,125\~\~\~\~3,2\P9/64\~\~\~0,1406\~\~\~3,6\P5
  3
/32\~\~\~0,1563\~\~\~4,0\P11/64\~\~0,1719\~\~\~4,4\P3/16\~\~\~0,1875\~\~\~4,8\P13/64\~\~0,2031\~\~\~5,2\P7/32\~\~\~0,2188\~\~\~5,6\P15/64\~\~0,2344\~\~\~6,0\P1/4\~\~\~\~0,25\~\~\~\~\~6,4\P17/64\~\~0,2656\~\~\~6,7\P9/32\~\~\~0,2813\~\~\~7,1\P19/64\~\~
  3
0,2969\~\~\~7,5\P5/16\~\~\~0,3125\~\~\~7,9\P21/64\~\~0,3281\~\~\~8,3\P11/32\~\~0,3438\~\~\~8,7\P23/64\~\~0,3594\~\~\~9,1\P3/8\~\~\~\~0,375\~\~\~\~9,5\P25/64\~\~0,3906\~\~\~9,9\P13/32\~\~0,4063\~\~\~10,3\P27/64\~\~0,4219\~\~\~10,7\P7/16\~\~\~0,4375\~\
  1
~\~11,1\P29/64\~\~0,4531\~\~\~11,5\P15/32\~\~0,4688\~\~\~11,9\P31/64\~\~0,4844\~\~\~12,3\P1/2\~\~\~\~0,5\~\~\~\~\~\~12,7
  7
standard
 50
-90.0
 73
0
 44
1.0
  0
MTEXT
  5
1FF
100
AcDbEntity
100
AcDbMText
  8
Epures
 62
256
370
30
  6
ByLayer
 10
171.88155411073853
 20
22.939387583892653
 30
0.0
 40
1.3999999999999999
 41
100.0
 71
1
 72
2
  3
33/64\~\~\~0,5156\~\~13,1\P17/32\~\~\~0,5313\~\~13,5\P35/64\~\~\~0,5469\~\~13,9\P9/16\~\~\~\~\~0,5625\~\~14,3\P37/64\~\~\~0,5781\~\~14,7\P19/32\~\~\~0,5938\~\~15,1\P39/64\~\~\~0,6094\~\~15,5\P5/8\~\~\~\~\~\~0,625\~\~\~15,9\P41/64\~\~0,6406\~\~16,3\P2
  3
1/32\~\~0,6563\~\~16,7\P43/64\~\~0,6719\~\~17,1\P11/16\~\~0,6875\~\~17,5\P45/64\~\~0,7031\~\~17,9\P23/32\~\~0,7188\~\~18,3\P47/64\~\~0,7344\~\~18,7\P3/4\~\~\~\~\~\~0,75\~\~\~\~\~19,1\P49/64\~\~0,7656\~19,4\P25/32\~\~0,7813\~19,8\P51/64\~\~0,7969\~20,
  3
2\P13/16\~\~0,8125\~20,6\P53/64\~\~0,8281\~21,0\P27/32\~\~0,8438\~21,4\P55/64\~\~0,8594\~21,8\P7/8\~\~\~\~\~\~0,875\~\~22,2\P57/64\~\~0,8906\~22,6\P29/32\~\~0,9063\~23,0\P59/64\~\~0,9219\~23,4\P15/16\~\~0,9375\~23,8\P61/64\~\~0,9531\~24,2\P31/32\~\~0
  1
,9688\~24,6\P63/64\~\~0,9844\~25,0\P1\~\~\~\~\~\~\~1,0000\~25,4
  7
standard
 50
-90.0
 73
0
 44
1.0
  0
LINE
  5
200
100
AcDbEntity
100
AcDbLine
  8
Epures
 62
256
370
15
  6
DASHEDX2
 10
90.0
 20
-10.0
 30
0.0
 11
90.0
 21
60.0
 31
0.0
  0
MTEXT
  5
201
100
AcDbEntity
100
AcDbMText
  8
Epures
 62
256
370
15
  6
DASHEDX2
 10
87.825083892617585
 20
51.61362206375847
 30
0.0
 40
1.0
 41
100.0
 71
1
 72
2
  1
Pliage
  7
standard
 50
90.0
 73
0
 44
1.0
  0
MTEXT
  5
202
100
AcDbEntity
100
AcDbMText
  8
Epures
 62
256
370
-1
  6
ByLayer
 10
77.415065256560965
 20
22.836947348295794
 30
0.0
 40
1.0
 41
100.0
 71
5
 72
2
  1
Buxus\Phttp://www.labellenote.ovh.org
  7
standard
 50
90.0
 73
1
 44
1.0
  0
ENDSEC
  0
SECTION
  2
OBJECTS
  0
DICTIONARY
  5
C
100
AcDbDictionary
280
0
281
1
  3
ACAD_GROUP
350
D
  3
ACAD_LAYOUT
350
1A
  3
ACAD_MLINESTYLE
350
17
  3
ACAD_PLOTSETTINGS
350
19
  3
ACAD_PLOTSTYLENAME
350
E
  3
AcDbVariableDictionary
350
203
  0
DICTIONARY
  5
D
100
AcDbDictionary
280
0
281
1
  0
ACDBDICTIONARYWDFLT
  5
E
100
AcDbDictionary
281
1
  3
Normal
350
F
100
AcDbDictionaryWithDefault
340
F
  0
ACDBPLACEHOLDER
  5
F
  0
DICTIONARY
  5
17
100
AcDbDictionary
280
0
281
1
  3
Standard
350
18
  0
MLINESTYLE
  5
18
100
AcDbMlineStyle
  2
STANDARD
 70
0
  3

 62
256
 51
90.0
 52
90.0
 71
2
 49
0.5
 62
256
  6
BYLAYER
 49
-0.5
 62
256
  6
BYLAYER
  0
DICTIONARY
  5
19
100
AcDbDictionary
280
0
281
1
  0
DICTIONARY
  5
1A
100
AcDbDictionary
281
1
  3
Layout1
350
1E
  3
Layout2
350
26
  3
Model
350
22
  0
LAYOUT
  5
1E
100
AcDbPlotSettings
  1

  2
C:\Program Files\AutoCAD 2002\plotters\DWF ePlot (optimized for plotting).pc3
  4

  6

 40
0.0
 41
0.0
 42
0.0
 43
0.0
 44
0.0
 45
0.0
 46
0.0
 47
0.0
 48
0.0
 49
0.0
140
0.0
141
0.0
142
1.0
143
1.0
 70
688
 72
0
 73
0
 74
5
  7

 75
16
147
1.0
148
0.0
149
0.0
100
AcDbLayout
  1
Layout1
 70
1
 71
1
 10
0.0
 20
0.0
 11
420.0
 21
297.0
 12
0.0
 22
0.0
 32
0.0
 14
100000000000000000000.0
 24
100000000000000000000.0
 34
100000000000000000000.0
 15
-100000000000000000000.0
 25
-100000000000000000000.0
 35
-100000000000000000000.0
146
0.0
 13
0.0
 23
0.0
 33
0.0
 16
1.0
 26
0.0
 36
0.0
 17
0.0
 27
1.0
 37
0.0
 76
0
330
1B
  0
LAYOUT
  5
22
100
AcDbPlotSettings
  1

  2
C:\Program Files\AutoCAD 2002\plotters\DWF ePlot (optimized for plotting).pc3
  4

  6

 40
0.0
 41
0.0
 42
0.0
 43
0.0
 44
0.0
 45
0.0
 46
0.0
 47
0.0
 48
0.0
 49
0.0
140
0.0
141
0.0
142
1.0
143
1.0
 70
1712
 72
0
 73
0
 74
0
  7

 75
0
147
1.0
148
0.0
149
0.0
100
AcDbLayout
  1
Model
 70
1
 71
0
 10
0.0
 20
0.0
 11
12.0
 21
9.0
 12
0.0
 22
0.0
 32
0.0
 14
0.0
 24
0.0
 34
0.0
 15
0.0
 25
0.0
 35
0.0
146
0.0
 13
0.0
 23
0.0
 33
0.0
 16
1.0
 26
0.0
 36
0.0
 17
0.0
 27
1.0
 37
0.0
 76
0
330
1F
  0
LAYOUT
  5
26
100
AcDbPlotSettings
  1

  2
C:\Program Files\AutoCAD 2002\plotters\DWF ePlot (optimized for plotting).pc3
  4

  6

 40
0.0
 41
0.0
 42
0.0
 43
0.0
 44
0.0
 45
0.0
 46
0.0
 47
0.0
 48
0.0
 49
0.0
140
0.0
141
0.0
142
1.0
143
1.0
 70
688
 72
0
 73
0
 74
5
  7

 75
16
147
1.0
148
0.0
149
0.0
100
AcDbLayout
  1
Layout2
 70
1
 71
2
 10
0.0
 20
0.0
 11
12.0
 21
9.0
 12
0.0
 22
0.0
 32
0.0
 14
0.0
 24
0.0
 34
0.0
 15
0.0
 25
0.0
 35
0.0
146
0.0
 13
0.0
 23
0.0
 33
0.0
 16
1.0
 26
0.0
 36
0.0
 17
0.0
 27
1.0
 37
0.0
 76
0
330
23
  0
DICTIONARY
  5
203
100
AcDbDictionary
281
1
  3
DIMASSOC
350
205
  3
HIDETEXT
350
204
  0
DICTIONARYVAR
  5
204
100
DictionaryVariables
280
0
  1
2
  0
DICTIONARYVAR
  5
205
100
DictionaryVariables
280
0
  1
1
  0
ENDSEC
  0
EOF
